Cifra Club

Why Don't You Get a Job?

The Offspring

Cifra: Principal (violão e guitarra)
Selo Cifra Club: esta cifra foi revisada para atender aos critérios oficiais da nossa Equipe de Qualidade.
tom: F
Verse (Acoustic):

   F*    Bb*   F*    C*    F*    Bb*   F*    C*    F*
|--1-----1-----1-----3-----1-----1-----1-----3-----1--|
|--1-----3-----1-----5-----1-----3-----1-----5-----1--|
|--2-----3-----2-----5-----2-----3-----2-----5-----2--|
|--3-----3-----3-----5-----3-----3-----3-----5-----3--|
|--3-----1-----3-----3-----3-----1-----3-----3-----3--|
|--1-----------1-----------1-----------1-----------1--|

Refrain (Acoustic Guitar plays the chords):

   F               Bb              F       C       F
|--1-x-1-x-1-x-1-x-6-x-6-x-6-x-6-x-1-x-1-x-3-x-3-x-1--|
|--1-x-1-x-1-x-1-x-6-x-6-x-6-x-6-x-1-x-1-x-5-x-5-x-1--|
|--2-x-2-x-2-x-2-x-7-x-7-x-7-x-7-x-2-x-2-x-5-x-5-x-2--|
|-----------------------------------------------------|
|-----------------------------------------------------|
|-----------------------------------------------------|

Bridge (Again, acoustic guitar plays the chords):

   Bb                              F
|--6-x-6-x-6-x-6-x-6-x-6-x-6-x-6-x-1-x-1-x-1-x-1-x-1-x-1-x-1-x-1-x--|
|--6-x-6-x-6-x-6-x-6-x-6-x-6-x-6-x-1-x-1-x-1-x-1-x-1-x-1-x-1-x-1-x--|
|--7-x-7-x-7-x-7-x-7-x-7-x-7-x-7-x-2-x-2-x-2-x-2-x-2-x-2-x-2-x-2-x--|
|-------------------------------------------------------------------|
|-------------------------------------------------------------------|
|-------------------------------------------------------------------|
   Bb                              C
|--6-x-6-x-6-x-6-x-6-x-6-x-6-x-6-x-3-x-3-x-3-x-3-x-3-x-3-x-3-x-3-x--|
|--6-x-6-x-6-x-6-x-6-x-6-x-6-x-6-x-5-x-5-x-5-x-5-x-5-x-5-x-5-x-5-x--|
|--7-x-7-x-7-x-7-x-7-x-7-x-7-x-7-x-5-x-5-x-5-x-5-x-5-x-5-x-5-x-5-x--|
|-------------------------------------------------------------------|
|-------------------------------------------------------------------|
|-------------------------------------------------------------------|

-Lyrics-

My friend's got a girlfriend
Man he hates that bitch
He tells me every day
He says "man I really gotta lose my chick
In the worst kind of way"

She sits on her ass 
He works his hands to the bone
To give her money every payday
But she wants more dinero just to stay at home
Well my friend 
You gotta say

I won't pay, I won't pay ya, no way
Why don't you get a job
Say no way, say no way, no way
Why don't you get a job

I guess all his money, well it isn't enough
To keep her bill collectors at bay
I guess all his money, well it isn't enough
Cause that girl's got expensive taste

I won't pay, I won't pay ya, no way
Why don't you get a job
Say no way, say no way, no way
Why don't you get a job

Well I guess it ain't easy doing nothing at all
But hey man free rides just don't come along
every day

Let me tell you about my other friend now

My friend's got a boyfriend, man she hates that dick
She tells me every day
He wants more dinero just to stay at home
Well my friend
You gotta say
Outros vídeos desta música
    74.725 exibições
      • ½ Tom
      • A
      • Bb
      • B
      • C
      • Db
      • D
      • Eb
      • E
      • F
      • F#
      • G
      • Ab
    • Adicionar à lista

    Afinação da cifra

    Afinador online

      0 comentários

      Ver todos os comentários

      Entre para o Cifra Club PRO

      Tenha acesso a benefícios exclusivos no App e no Site

      • Chega de anúncios

      • Badges exclusivas

      • Mais recursos no app do Afinador

      • Atendimento Prioritário

      • Aumente seu limite de lista

      • Ajude a produzir mais conteúdo

      Cifra Club Pro

      Aproveite o Cifra Club com benefícios exclusivos e sem anúncios
      Cifra Club Pro
      Aproveite o Cifra Club com benefícios exclusivos e sem anúncios
      OK