Cifra Club

Aprenda

O Amor Que Nos Faz Um

Palavrantiga

Cifra: Principal (violão e guitarra)
tom: Ab
Solo da Intro 4x:

E|------------------------------------------------------|
B|------------------------------------------------------|
G|------------------------------------------------------|
D|-------6-6-6-6-----8-8--8--8--------------------------|
A|----6/8-8-8-8---6/8-8--8--8---------------------------|
E|--------------8--------------8------------------------|

Intro 2x: Db  Fm7  Eb  Ab  Fm7  Bbm7  Eb

Fm7
O fogo ardeu e o anjo falou
Bbm      Eb
Onde está o amor
Fm7
A glória se foi a chuva molhou
Bbm          Eb
As palavras que ainda antes
      Fm7
O amor me mostrou
(Fm7)   Bbm7    Eb
Nunca é tarde demais  não (não)  2x

Db     Bbm7     Ab
Pra descobrir o amor
     Eb
Que vai além dos meus versos

Db  Bbm     Ab      Eb      Db
Que parece dizer: É o Senhor que pergunta
   Bbm   Ab          Eb4
Onde está você que diz que me adora
      Eb       (Fm7  Bbm7 Eb)
Mas não estende as mãos

  Db        Fm7
O amor que nos faz um
  Eb         Ab9
O amor que nos faz um
  Db           Fm7
O amor que se revela a mim
      Eb         Db
Como uma bandeira, verdade e graça
 Bbm7  Eb        Ab     Eb4
Um mandamento e a nossa canção

[Solo] Ab  Eb/G  Fm7  Eb  Db  Ab/C  Bbm7  Eb


E|--------------------------------------------------------------------|
B|--------------------------------------------------------------------|
G|---8--------8-------------------------------------------------------|
D|-----10-11---10-8-----11-10-8-6---6-8-10---8-6-5--------------------|
A|--------------------------------------------------------------------|
E|--------------------------------------------------------------------|

E|----------------------------------------------------------|
B|----------------------------------------------------------|
G|----------------------------------------------------------|
D|--8-6-5-3----3-5-6-3-1-----6-5-3----3-5-6/7---------------|
A|----------------------------------------------------------|
E|----------------------------------------------------------|

E|-----------------6-8-9----11--8-9-11--8--------------------------|
B|---------6-8-9--------------------------------11---14-13-11-9----|
G|--5-6-7----------------------------------------------------------|
D|-----------------------------------------------------------------|
A|-----------------------------------------------------------------|
E|-----------------------------------------------------------------|

E|-----------------------------------------------------------------|
B|--9-11-13-11-9-8----11-9-8-6----6-8-9-6-4------------------------|
G|-----------------------------------------------------------------|
D|-----------------------------------------------------------------|
A|-----------------------------------------------------------------|
E|-----------------------------------------------------------------|

E|--------------------8-9-11-8----11-8-9-11-8----------------------|
B|-9-8-6-8-9-11-----------------------------------11---14-13-11-9--|
G|-----------------------------------------------------------------|
D|-----------------------------------------------------------------|
A|-----------------------------------------------------------------|
E|-----------------------------------------------------------------|

E|-----------------------------------------------------------------|
B|--9-11-13-11-9-8----11-9-8-6----6-8-9-6-4-----9-8-6-8------------|
G|-----------------------------------------------------------------|
D|-----------------------------------------------------------------|
A|-----------------------------------------------------------------|
E|-----------------------------------------------------------------|

E|-------------------8-----------------------------------|
B|--9-11-8-9-11-----9~-----------------------------------|
G|-------------------------------------------------------|
D|-------------------------------------------------------|
A|-------------------------------------------------------|
E|-------------------------------------------------------|
Compositor não encontrado.
140.052 exibições
    • ½ Tom
    • A
    • Bb
    • B
    • C
    • Db
    • D
    • Eb
    • E
    • F
    • F#
    • G
    • Ab
  • Adicionar à lista

    0 comentários

    Ver todos os comentários

    Conseguiu tocar?

    25 Tocaram 7 Ainda não

    Grave um vídeo tocando O Amor Que Nos Faz Um e nos envie!

    00:00 / 00:00
    Outros vídeos desta música
    Repetir Qualidade Automático
    Outros vídeos desta música
    00:00 / 00:00
    Automático

    Cifra Club Pro

    Aproveite o Cifra Club com benefícios exclusivos e sem anúncios
    Cifra Club Pro
    Aproveite o Cifra Club com benefícios exclusivos e sem anúncios
    OK