Cifra Club

In My Tree

Pearl Jam

Tab de baixo: Versão 2
In My tree

Verse: 
 
-|--------------------------------------------------------------------|- 
-|--------------------------------------------------------------------|- 
-|-7-7-7--7-7--7-7--9-9-9--9-9--9-9--0-0-0--0-0--0-0--2-2-2--2-2--2-2-|- 
-|--------------------------------------------------------------------|- 
              Up here in my tree,    yea 
 -|--------------------------------------------------------------------|- 
-|--------------------------------------------------------------------|- 
-|-7-7-7--7-7--7-7--9-9-9--9-9--9-9--0-0-0--0-0--0-0--2-2-2--2-2--2-2-|- 
-|--------------------------------------------------------------------|- 
   newspapers... ...me,              yea 
 -|--------------------------------------------------------------------|- 
-|--------------------------------------------------------------------|- 
-|-7-7-7--7-7--7----9-9-9--9-9--9-9--0-0-0--0-0--0-0--2-2-2--2-2--2-2-|- 
-|--------------------------------------------------------------------|- 
   no more...    ...head,            yea 
 -|--------------------------------------------------------------------|- 
-|--------------------------------------------------------------------|- 
-|-7-7-7--7-7--7-7--9-9-9--9-9--9-9--0-0-0--0-0--0-0--2-2-2--2-2--2-2-|- 
-|--------------------------------------------------------------------|- 
   i'm trading...   leaves instead... 
 
-|--------------------|- 
-|--------------------|- 
-|--------------------|- 
-|-0--------0---------|- 
 
 2nd Verse: 
 
-|--------------------------------------------------------------------|- 
-|--------------------------------------------------------------------|- 
-|-7-7-7--7-7--7-7--9-9-9--9-9--9-9--0-0-0--0-0--0-0--2-2-2--2-2--2-2-|- 
-|--------------------------------------------------------------------|- 
   wave to all my friends,           yea 
 
-|--------------------------------------------------------------------|- 
-|--------------------------------------------------------------------|- 
-|-7-7-7--7-7--7-7--9-9-9--9-9--9-9--0-0-0--0-0--0-0--2-2-2--2-2--2-2-|- 
-|--------------------------------------------------------------------|- 
   they don't... ...me,     yea 
 
-|--------------------------------------------------------------------|- 
-|--------------------------------------------------------------------|- 
-|-7-7-7--7-7--7-7--9-9-9--9-9--9-9--0-0-0--0-0--0-0--2-2-2--2-2--2-2-|- 
-|--------------------------------------------------------------------|- 
   all their eyes... 
 
-|--------------------------------------------------------------------|- 
-|--------------------------------------------------------------------|- 
-|-7-7-7--7-7--7-7--9-9-9--9-9--9-9--0-0-0--0-0--0-0--2-2-2--2-2--2-2-|- 
-|--------------------------------------------------------------------|- 
   sidewalk...                       yea 
 
-|--------------------|- 
-|--------------------|- 
-|--------------------|- 
-|-0--------0---------|- 
 
 Chorus: 
  
-|---------------------------------------------------------------------|- 
-|---------------------------------------------------------------------|- 
-|---------------------------------------------------------------------|- 
-|-3-3-3--5-5--5-5--0-0-0--0-0--0-0---3-3-3--5-5--5-5--0-0-0--0-0--0-0-|- 
   up here so high i start to shake.  up here so high the sky i scrape 
 
-|---------------------------------------------------------------------|- 
-|---------------------------------------------------------------------|- 
-|---------------------------------------------------------------------|- 
-|-3-3-3--5-5--5-5--0-0-0--0-0--0-0---3-3-3--5-5--5-5--0-0-0--0-0--0-0-|- 
   i'm so high... 
   
 Bridge: no bass 
 
eddie's down in his home 
oh, the blue sky it's his home 
eddie's blue sky home 
oh, the blue sky it's his home 
  
 3rd Verse: 
  
-|---------------------------------------------------------|- 
-|--------14-14-14-16-------------14-14-14-16--------------|- 
-|--------------------12-12-14-14-------------12-12-14-14--|- 
-|-12------------------------------------------------------|- 
   i remember when... 
 
-|---------------------------------------------------------|- 
-|--------14-14-14-16-------------14-14-14-16--------------|- 
-|--------------------12-12-14-14-------------12-12-14-14--|- 
-|-12------------------------------------------------------|- 
   i swore i knew... 
 
-|---------------------------------------------------------|- 
-|--------14-14-14-16-------------14-14-14-16--------------|- 
-|--------------------12-12-14-14-------------12-12-14-14--|- 
-|-12------------------------------------------------------|- 
   lets say knowledge... 
 
-|---------------------------------------------------------|- 
-|--------14-14-14-16-------------14-14-14-16--------------|- 
-|--------------------12-12-14-14-------------12-12-14-14--|- 
-|-12------------------------------------------------------|- 
   it's growing up...  
 
 2nd Chorus: 
 
-|---------------------------------------------------------------------|- 
-|---------------------------------------------------------------------|- 
-|---------------------------------------------------------------------|- 
-|-3-3-3--5-5--5-5--0-0-0--0-0--0-0---3-3-3--5-5--5-5--0-0-0--0-0--0-0-|- 
   i'm so light the wind he shakes.   i'm so high the sky i scrape. 
  
-|---------------------------------------------------------------------|- 
-|---------------------------------------------------------------------|- 
-|---------------------------------------------------------------------|- 
-|-3-3-3--5-5--5-5--0-0-0--0-0--0-0---3-3-3--5-5--5-5--0-0-0--0-0--0-0-|- 
  
-|---------------------------------------------------------------------|- 
-|---------------------------------------------------------------------|- 
-|------------------7-7-7--7-7--7-7--------------------7-7-7--7-7--7-7-|- 
-|-3-3-3--5-5--5-5--------------------3-3-3--5-5--5-5------------------|- 
 
-|---------------------------------------------------------------------- 
-|----------------------------------------------------5-4-2------------- 
-|------------------7-7-7--7-7--7-7-------------------------5-4-2------- 
-|-3-3-3--5-5--5-5--------------------3-3-3--5-5--5-5-------------3-3-3- 
 
-|------------|- 
-|------------|- 
-|------------|- 
-|-5-5--5-5-0-|-
exibições 10
Composição: Eddie Vedder / Jack Irons / Stone Gossard Colaboração e revisão:
  • deivison

0 comentários

mostrar mais comentários

Conseguiu tocar?

0 tocaram 0 ainda não

Grave um vídeo tocando In My Tree e mande pra gente!

00:00 / 00:00
outros vídeos desta música
repetir qualidade Automático
Outros vídeos desta música
00:00 / 00:00
Automático
OK