Cifra Club

Aprenda

Planet Of Sound

Pixies

Cifra: Principal (violão e guitarra)
tom: D
Intro

e|-/15br\---------------|
B|-/15b-----------------|
G|----------------------|
D|----------------------|
A|----------------------|
D|----------------------|

Verse 1
   One day in my odd past,     I picked me up a transmission
e|------------------------12~-----------------------------------------------|
B|--------------------------------------------------------------------------|
G|--------------------------------------------------------------------------|
D|--------------------------------------------------------------------------|
A|--------------------------------------------------------------------------|
D|------------------------------0--0---0-0--0----0--------------------------|
                              PM..................
       I turned the fission ignition,   looking for the broadcaster
e|-12~-------------------------------12~------------------------------------|
B|--------------------------------------------------------------------------|
G|--------------------------------------------------------------------------|
D|--------------------------------------------------------------------------|
A|--------------------------------------------------------------------------|
D|------------------------------------------------------0-0-0-0-0-0---------|
                                                      PM...........
   And when I first touched some ground, they simply told me to leave
e|--------------------------------------------------------------------------|
B|--------------------------------------------------------------------------|
G|--------------------------------------------------------------------------|
D|--------------------------------------------------------------------------|
A|--------------------------------------------------------------------------|
D|--------------------------------------------------------------------------|

    Was kinda hard to believe, 'cos there was no one around
e|--------------------------------------------------------------------------|
B|--------------------------------------------------------------------------|
G|--------------------------------------------------------------------------|
D|--------------------------------------------------------------------------|
A|--------------------------------------------------------------------------|
D|-0-0--0-0-----0--------0--------------------------------------------------|
 PM........................

Chorus 1

  This ain't the Planet of Sound
e|-------------------------------------------------------------12\----------|
B|---------------------------------------------------------3---12\----------|
G|---------------------------7-----------------------------2----------------|
D|-7---7------7---7--7--7----7---------------------x4------0----------------|
A|-7---7------7---7--7--7----5----6p0---3p0----------------0----------------|
D|-7---7------7---7--7--7---------------------3p0----------0----------------|

Verse 2

I had a talented wine, that land o' classical gas

   And on the planet of glass    they sent me skipping through time
e|--11b---11b-11b---11b---11b--11b------------------------------------------|
B|--------------------------------------------------------------------------|
G|--------------------------------------------------------------------------|
D|--------------------------------------------------------------------------|
A|--------------------------------------------------------------------------|
D|--------------------------------------------------------------------------|

    I got to somewhere renowned for it's canals and colour of red
e|----------------------------------------11b--11b--11b-11b-11b-------------|
B|--------------------------------------------------------------------------|
G|--------------------------------------------------------------------------|
D|--------------------------------------------------------------------------|
A|--------------------------------------------------------------------------|
D|--------------------------------------------------------------------------|

And lots of guys who shook their heads rythmically to resound

Chorus 2

e|--------------------------------------------------------------------------|
B|--------------------------------------------------------------------------|
G|-------------7----------------x8------2-2-2-------------------------------|
D|-7-7-7-7-7-7-7------------------------0-0-0-------------------------------|
A|-7-7-7-7-7-7-5-6p0--3p0---------------0-0-0-------------------------------|
D|-7-7-7-7-7-7-------------3p0----------0-0-0-------------------------------|

Solo

e|---------------------------------------------------------------------------|
B|-------------10---------------------------------------10-------12-12-12-10-|
G|-------10-----------10----12b-12b-12-11-10-------10---------10-12-12-12----|
D|-12-12----12-----12----12------------------12-12----12---12----------------|
A|---------------------------------------------------------------------------|
D|---------------------------------------------------------------------------|

e|-----------------------------------------10-----10-----10------10-----15b-|
B|-------------10-------12-12-12-12-14-13b----13b----13b-----13b------------|
G|-------10----------10-12-12-12-12-14--------------------------------------|
D|-12-12----12----12--------------------------------------------------------|
A|--------------------------------------------------------------------------|
D|--------------------------------------------------------------------------|

Chorus 3/Outro

e|--------------------------------------------------------------------------|
B|--------------------------------------------------------------------------|
G|-------------7---------------x8-------------------------------------------|
D|-7-7-7-7-7-7-7---------------------7-7-7-7-7-7----------------------------|
A|-7-7-7-7-7-7-5-6p0-3p0-------------7-7-7-7-7-7----------------------------|
D|-7-7-7-7-7-7------------3p0--------7-7-7-7-7-7----------------------------|
Composição de Black Francis
Colaboração e revisão:
  • Élison Duarte
696 exibições
    • ½ Tom
    • A
    • Bb
    • B
    • C
    • Db
    • D
    • Eb
    • E
    • F
    • F#
    • G
    • Ab
  • Adicionar à lista

    0 comentários

    Ver todos os comentários
    00:00 / 00:00
    outros vídeos desta música
    repetir qualidade Automático
    Outros vídeos desta música
    00:00 / 00:00
    Automático

    Cifra Club Pro

    Aproveite o Cifra Club com benefícios exclusivos e sem anúncios
    Cifra Club Pro
    Aproveite o Cifra Club com benefícios exclusivos e sem anúncios
    OK