Cifra Club

Nevermind

Red Hot Chili Peppers

Tab de baixo: Principal
Selo Cifra Club: esta cifra foi revisada para atender aos critérios oficiais da nossa Equipe de Qualidade.
     S S S S S  S S S S S S S S  S S S    S S S S S  S S S S S S S S  S S S  
G||------------------------------------|------------------------------------|
D||------------------------------------|------------------------------------|
A||------7-L--------x-----7-L--------x-|------7-L--------x-----7-L--------x-|
E||--0-L-----5h-7-L---0-L-----5h-7-L---|--0-L-----5h-7-L---0-L-----5h-7-L---|


  S S S S S  S S S S S S S S  S S S    S S S S S  S S S S S S S S  S S S  
------------------------------------|------------------------------------|
------------------------------------|------------------------------------|
------7-L--------x-----7-L--------x-|------7-L--------x-----7-L--------x-|
--0-L-----5h-7-L---0-L-----5h-7-L---|--0-L-----5h-7-L---0-L-----5h-7-L---|


  S S S S S  S S S S S S S S  S S S    S S S S S  S S S S S S S S  S S S  
------------------------------------|------------------------------------|
------------------------------------|------------------------------------|
------7-L--------x-----7-L--------x-|------7-L--------x-----7-L--------x-|
--0-L-----5h-7-L---0-L-----5h-7-L---|--0-L-----5h-7-L---0-L-----5h-7-L---|


  S S S S S  S S S S S S S S  S S S    S S S S S  S S S S S S S S  S S S  
------------------------------------|------------------------------------|
------------------------------------|------------------------------------|
------7-L--------x-----7-L--------x-|------7-L--------x-----7-L--------x-|
--0-L-----5h-7-L---0-L-----5h-7-L---|--0-L-----5h-7-L---0-L-----5h-7-L---|


  S S S S S  S S S S S S S S  S S S    S S S S S  S S S S S S S S  S S S  
------------------------------------|------------------------------------|
------------------------------------|------------------------------------|
------7-L--------x-----7-L--------x-|------7-L--------x-----7-L----------|
--0-L-----5h-7-L---0-L-----5h-7-L---|--0-L-----5h-7-L---0-L-----5h-7-L-L-|


  S S S S S S E  S S S S S E.     S S S S S S E  S S S S Q     
---------------------------2---|-----------------4---4---2----|
------4---4-2--------2---2-----|------4---4-2-----------------|
-----------------4-L-----------|------------------------------|
--2-L--------------------------|--2-L-------------------------|


  S S S S S S E  S S S S Q       S S S S S S E  S S S S Q     
-------------------------2----|-----------------4---4---2----|
------4---4-2--------2--------|------4---4-2-----------------|
-----------------4-L----------|------------------------------|
--2-L-------------------------|--2-L-------------------------|


  S S S S S  S S S S S S S S  S S S    S S S S S  S S S S S S S S  S S S  
------------------------------------|------------------------------------|
------------------------------------|------------------------------------|
------7-L--------x-----7-L--------x-|------7-L--------x-----7-L--------x-|
--0-L-----5h-7-L---0-L-----5h-7-L---|--0-L-----5h-7-L---0-L-----5h-7-L---|


  S S S S S  S S S S S S S S  S S S    S S S S S  S S S S S S S S  S S S  
------------------------------------|------------------------------------|
------------------------------------|------------------------------------|
------7-L--------x-----7-L--------x-|------7-L--------x-----7-L--------x-|
--0-L-----5h-7-L---0-L-----5h-7-L---|--0-L-----5h-7-L---0-L-----5h-7-L---|


  S S S S S  S S S S S S S S  S S S    S S S S S  S S S S S S S S  S S S  
------------------------------------|------------------------------------|
------------------------------------|------------------------------------|
------7-L--------x-----7-L--------x-|------7-L--------x-----7-L--------x-|
--0-L-----5h-7-L---0-L-----5h-7-L---|--0-L-----5h-7-L---0-L-----5h-7-L---|


  S S S S S  S S S S S S S S  S S S    S S S S S  S S S S S S S S  S S S  
------------------------------------|------------------------------------|
------------------------------------|------------------------------------|
------7-L--------x-----7-L--------x-|------7-L--------x-----7-L--------x-|
--0-L-----5h-7-L---0-L-----5h-7-L---|--0-L-----5h-7-L---0-L-----5h-7-L---|


  S S S S S  S S S S S S S S  S S S    S S S S S  S S S S S S S S  S S S  
------------------------------------|------------------------------------|
------------------------------------|------------------------------------|
------7-L--------x-----7-L--------x-|------7-L--------x-----7-L----------|
--0-L-----5h-7-L---0-L-----5h-7-L---|--0-L-----5h-7-L---0-L-----5h-7-L-L-|


  S S S S S S E  S S S S S E.     S S S S S S E  S S S S Q     
---------------------------2---|-----------------4---4---2----|
------4---4-2--------2---2-----|------4---4-2-----------------|
-----------------4-L-----------|------------------------------|
--2-L--------------------------|--2-L-------------------------|


  S S S S S S E  S S S S Q       S S S S S S E  S S S S Q     
-------------------------2----|-----------------4---4---2----|
------4---4-2--------2--------|------4---4-2-----------------|
-----------------4-L----------|------------------------------|
--2-L-------------------------|--2-L-------------------------|


  S S S S S  S S S S S S S S  S S S    S S S S S  S S S S S S S S  S S S  
------------------------------------|------------------------------------|
------------------------------------|------------------------------------|
------7-L--------x-----7-L--------x-|------7-L--------x-----7-L--------x-|
--0-L-----5h-7-L---0-L-----5h-7-L---|--0-L-----5h-7-L---0-L-----5h-7-L---|


  S S S S S  S S S S S S S S  S S S    S S S S S  S S S S S S S S  S S S  
------------------------------------|------------------------------------|
------------------------------------|------------------------------------|
------7-L--------x-----7-L--------x-|------7-L--------x-----7-L--------x-|
--0-L-----5h-7-L---0-L-----5h-7-L---|--0-L-----5h-7-L---0-L-----5h-7-L---|


  S S S S S  S S S S S S S S  S S S    S S S S S  S S S S S S S S  S S S  
------------------------------------|------------------------------------|
------------------------------------|------------------------------------|
------7-L--------x-----7-L--------x-|------7-L--------x-----7-L--------x-|
--0-L-----5h-7-L---0-L-----5h-7-L---|--0-L-----5h-7-L---0-L-----5h-7-L---|


  S S S S S  S S S S S S S S  S S S    S S S S S  S S S S S S S S  S S S  
------------------------------------|------------------------------------|
------------------------------------|------------------------------------|
------7-L--------x-----7-L--------x-|------7-L--------x-----7-L--------x-|
--0-L-----5h-7-L---0-L-----5h-7-L---|--0-L-----5h-7-L---0-L-----5h-7-L---|


  S S S S S  S S S S S S S S  S S S    S S S S S  S S S S S S S S  S S S  
------------------------------------|------------------------------------|
------------------------------------|------------------------------------|
------7-L--------x-----7-L--------x-|------7-L--------x-----7-L----------|
--0-L-----5h-7-L---0-L-----5h-7-L---|--0-L-----5h-7-L---0-L-----5h-7-L-L-|


  S S S S S S E  S S S S S E.     S S S S S S E  S S S S Q     
---------------------------2---|-----------------4---4---2----|
------4---4-2--------2---2-----|------4---4-2-----------------|
-----------------4-L-----------|------------------------------|
--2-L--------------------------|--2-L-------------------------|


  S S S S S S E  S S S S Q       S S S S S S E  S S S S Q     
-------------------------2----|-----------------4---4---2----|
------4---4-2--------2--------|------4---4-2-----------------|
-----------------4-L----------|------------------------------|
--2-L-------------------------|--2-L-------------------------|


  S S S S S  S S S S S S S S  S S S    S S S S S  S S S S S S S S  S S S  
------------------------------------|------------------------------------|
------------------------------------|------------------------------------|
------7-L--------x-----7-L--------x-|------7-L--------x-----7-L--------x-|
--0-L-----5h-7-L---0-L-----5h-7-L---|--0-L-----5h-7-L---0-L-----5h-7-L---|


  S S S S S  S S S S S S S S  S S S    S S S S S  S S S S S S S S  S S S  
------------------------------------|------------------------------------|
------------------------------------|------------------------------------|
------7-L--------x-----7-L--------x-|------7-L--------x-----7-L--------x-|
--0-L-----5h-7-L---0-L-----5h-7-L---|--0-L-----5h-7-L---0-L-----5h-7-L---|

  E  E  H.              H        Q    Q     
---------------------|---------------------|
---------------------|---------------------|
--5--4--L------------|---------------------|
---------------------|----------------x----|

  S S S S S  S S S S S S S S  S S S    S S S S S  S S S S S S S S  S S S  
------------------------------------|------------------------------------|
------------------------------------|------------------------------------|
------7-L--------x-----7-L--------x-|------7-L--------x-----7-L--------x-|
--0-L-----5h-7-L---0-L-----5h-7-L---|--0-L-----5h-7-L---0-L-----5h-7-L---|


  S S S S S  S S S S S S S S  S S S    S S S S S  S S S S S S S S  S S S  
------------------------------------|------------------------------------|
------------------------------------|------------------------------------|
------7-L--------x-----7-L--------x-|------7-L--------x-----7-L--------x-|
--0-L-----5h-7-L---0-L-----5h-7-L---|--0-L-----5h-7-L---0-L-----5h-7-L---|


  S S S S S  S S S S S S S S  S S S    S S S S S  S S S S S S S S  S S S  
------------------------------------|------------------------------------|
------------------------------------|------------------------------------|
------7-L--------x-----7-L--------x-|------7-L--------x-----7-L--------x-|
--0-L-----5h-7-L---0-L-----5h-7-L---|--0-L-----5h-7-L---0-L-----5h-7-L---|


  S S S S S  S S S S S S S S  S S S    S S S S S  S S S S S S S S  S S S  
------------------------------------|------------------------------------|
------------------------------------|------------------------------------|
------7-L--------x-----7-L--------x-|------7-L--------x-----7-L--------x-|
--0-L-----5h-7-L---0-L-----5h-7-L---|--0-L-----5h-7-L---0-L-----5h-7-L---|


  S S S S S  S S S S S S S S  S S S    S S S S S  S S S S S S S S  S S S  
------------------------------------|------------------------------------|
------------------------------------|------------------------------------|
------7-L--------x-----7-L--------x-|------7-L--------x-----7-L--------x-|
--0-L-----5h-7-L---0-L-----5h-7-L---|--0-L-----5h-7-L---0-L-----5h-7-L---|


  S S S S S  S S S S S S S S  S S S    S S S S S  S S S S S S S S  S S S  
------------------------------------|------------------------------------|
------------------------------------|------------------------------------|
------7-L--------x-----7-L--------x-|------7-L--------x-----7-L--------x-|
--0-L-----5h-7-L---0-L-----5h-7-L---|--0-L-----5h-7-L---0-L-----5h-7-L---|


  S S S S S  S S S S S S S S  S S S    S S S S S  S S S S S S S S  S S S  
------------------------------------|------------------------------------|
------------------------------------|------------------------------------|
------7-L--------x-----7-L--------x-|------7-L--------x-----7-L----------|
--0-L-----5h-7-L---0-L-----5h-7-L---|--0-L-----5h-7-L---0-L-----5h-7-L-L-|


  S S S S S S E  S S S S S E.     S S S S S S E  S S S S Q     
---------------------------2---|-----------------4---4---2----|
------4---4-2--------2---2-----|------4---4-2-----------------|
-----------------4-L-----------|------------------------------|
--2-L--------------------------|--2-L-------------------------|


  S S S S S S E  S S S S Q       S S S S S S E  S S S S Q      
-------------------------2----|-----------------4---4---2----||
------4---4-2--------2--------|------4---4-2-----------------||
-----------------4-L----------|------------------------------||
--2-L-------------------------|--2-L-------------------------||

( L = quando liga uma nota com a outra, tipo arrastanbdu o dedo nas casa )
Outros vídeos desta música
    499 exibições

    Afinação da cifra

    Afinador online

    0 comentários

    Ver todos os comentários

    Conseguiu tocar?

    1Tocaram0Ainda não

    Grave um vídeo tocando Nevermind e nos envie!

    Toque também

    1. Imagem do artista AudioslaveLike a Stone Audioslave
    2. Imagem do artista Foo FightersEverlong Foo Fighters
    3. Imagem do artista Faith No MoreEasy Faith No More
    4. Imagem do artista IncubusDrive Incubus

    Entre para o Cifra Club PRO

    Tenha acesso a benefícios exclusivos no App e no Site

    • Chega de anúncios

    • Badges exclusivas

    • Mais recursos no app do Afinador

    • Atendimento Prioritário

    • Aumente seu limite de lista

    • Ajude a produzir mais conteúdo

    Cifra Club Pro

    Aproveite o Cifra Club com benefícios exclusivos e sem anúncios
    Cifra Club Pro
    Aproveite o Cifra Club com benefícios exclusivos e sem anúncios
    Ops (: Contenido disponible sólo en portugués.
    OK