Cifra Club

O Meio e o Fim

Rosa de Saron

Cifra: Principal
exibições 44.655
Tom: F
Intro: Dm  Bb  F  Gm

E|-------------------------------|
B|-------------------------------|
G|---7^9-10----------------------|   (8x)
D|-----------7^8-10---10-8---8-7-|
A|------------------8------8-----|
E|-------------------------------|

Dm      Bb      F         Gm
 Acabou! Acabou! Hoje é o dia D!
Dm       Bb           F        Gm
Foi isso que você leu no jornal hoje cedo?
Dm      Bb       F    Gm
Tudo bem quando tudo acaba bem
Dm          Bb        F            Gm
Mas se não acabar bem, qual é o fim que se tem?

E|-------|-----------------
B|-6-5---|-6-5---6-5-6-5---
G|-----7-|-----7---------7-
D|-------|-----------------
A|-------|-----------------
E|-------|-----------------

Bb        Gm                Bb
O medo do fim é o meio e o fim
             Gm
O medo, o fim e um breve recomeço

Refrão:
Dm Bb     F         G   Dm  Bb    F   G        Dm
Até que o sol não brilhe, acenda uma vela na escuridão
   Bb                F             G         Dm    Bb F
Levante a mão, se o fim é bom, também são os meios
    G
Também são os meios

( Dm  Bb  F  Gm )


E|-------------------------
B|-------------------------
G|-----7-----3-------------
D|---7-----3-------3-----5-
A|-5-----1-------3-----5---
E|-------------1-----3-----
Dm       Bb        F        Gm
 É o fim!  É o final que você quer saber?
Dm         Bb              F      Gm *
Me conte o seu passado, e saberei seu futuro
Dm       Bb            F      Gm
De que vale o ouro se ele não compra a alma?
Dm      Bb           F           Gm
A moral é imoral se não há o bem para o outro
  *no lugar do Gm
E|----------------
B|----------------
G|----------------
D|-------3--------
A|--3/5-----3--5--
E|----------------

E|-------|-----------------
B|-6-5---|-6-5---6-5-6-5---
G|-----7-|-----7---------7-
D|-------|-----------------
A|-------|-----------------
E|-------|-----------------
Bb             Gm
Tem medo do fim?
               Bb              Gm
Tem medo do fim porque o seu fim justificou seu meio
Bb           Gm                 Bb
O abrigo enfim, é o início do sim
               Gm
O início do sim é onde Deus se encontra

Refrão:
Dm Bb     F         G   Dm  Bb    F   G        Dm
Até que o sol não brilhe, acenda uma vela na escuridão
   Bb                F             G         Dm    Bb F
Levante a mão, se o fim é bom, também são os meios
    G
Também são os meios

Dm                          F                 Gm              Dm
A memória contará a história de quem teve decência na história
              Bb               Dm
 Deixe sua mensagem após o sinal...

Solo:
E|-13-13-13----------------------------------|-13-13-13-------------------------------
B|----------13-13-13-15-15-15----------13----|----------13-13-13-15-15-15----------13-
G|----------------------------14-14-14----12-|----------------------------14-14-14----
D|-------------------------------------------|----------------------------------------
A|-------------------------------------------|----------------------------------------
E|-------------------------------------------|----------------------------------------

E|---------|----------------------------
B|---------|----------------------------
G|-5h7-7-7-|-5h7-7-7/10-10-10-9-9-7-7-5-
D|---------|----------------------------
A|---------|----------------------------
E|---------|----------------------------
Acordes para:
    Colaboração e revisão:

    0 comentários

      mostrar mais comentários

      Conseguiu tocar?

      21tocaram1ainda não

      Grave um vídeo tocando O Meio e o Fim e mande pra gente!

      00:00 / 00:00
      outros vídeos desta música
      repetirqualidadeautomática
      Outro vídeos desta música
        00:00 / 00:00
        automática
        OK