Cifra Club

Selfishness

Rufio

Tab de baixo: Principal
++++++++++++++++++++++
++++++++++++++++++++++

EADG

Intro.   x3
1.
G|----------------|
D|----------------|
A|-6~--4~------2~-|
E|---------2~-----|

2.
G|----------------|
D|-8~--6~--4~-----|
A|-------------2~-|
E|----------------|

No bass during the crazy guitars..
;D

3.
G|-----------------------------|
D|-----------------------------|
A|-222222-444444-666666-444444-|
E|-----------------------------|

               OR

3.
G|-----------------------------|  I prefer
D|----4------3------4------3---|  this one, but
A|-222-22-444-44-666-66-444-44-|  it's not the
E|-----------------------------|  correct one :O

4.
G|-----------------------------|
D|-----------------------------|
A|-222222-444444-666666-44-4-4-|
E|-----------------------------|

Verse
"Harden up to everyone.."             x2
5.
G|---------------------------------------------------------------------|
D|---------------------------------------------------------------------|
A|-2222222222222222-4444444444444444-----------------------------------|
E|-----------------------------------2222222222222222-1111111111111111-|

Pre-Chorus
"Your selfishness, is wearing thin.."  x4
6.
G|-----------------------------|
D|-----------------------------|
A|-222222-444444-666666-444444-|
E|-----------------------------|

Chorus
"Alone and strong..."
7.
G|---------------------------------|
D|-444444-333333-------------------|
A|---------------2222222-6666-4444-|--|
E|---------------------------------|  |
                                      |
"If anything turns inside.."          |
8.                                    |-- x2
G|-----------------------------|      |
D|-----------------------------|------|
A|-222222-222222-444444-444444-|
E|-----------------------------|

Outro.    x4 
00:00 / 00:00
Outros vídeos desta música
Repetir
Outros vídeos desta música
Composição de Rufio
169 exibições

0 comentários

Ver todos os comentários

Conseguiu tocar?

0 Tocaram 0 Ainda não

Grave um vídeo tocando Selfishness e nos envie!

00:00 / 00:00

Cifra Club Pro

Aproveite o Cifra Club com benefícios exclusivos e sem anúncios
Cifra Club Pro
Aproveite o Cifra Club com benefícios exclusivos e sem anúncios
OK