Notificações Amigos pendentes

      Rush

      Bravado

      5.892 exibições
      q = 110
      
            s s s s s s s s s s s s s s s s     s s s s s s s s s s s s s s s s
      H||---X-X-X-X---X-X-X-X-X-X-X---X-X-X-|---X-X-X-X---X-X-X-X-X-X-X---X-X-X-|
      S||4:---------X---------------X-------|-----------X---------------X-------|
      T||4:---------------------------------|-----------------------------------|
      F||--X--------X------X--------X-------|---X-------X-------X-------X-------|
       __________________________________________________________________________
       | 1.
       |   s s s s s s s s s s s s s s s s     s s s s s s s s s s s s s s s s
      H|---X-X-X-X---X-X-X-X-X-X-X---X-X-X-|---X-X-O-O---X-X-X-X-X-O-O---X-X-X--||
      S|-----------X---------------X-------|-----------X---------------X-------:||
      T|-----------------------------------|-----------------------------------:||
      F|---X-------X-------X-------X-------|---X-------X-------X-------X--------||
       _________________________________________________________________________
       | 2.
       |   s s s s s s s s s s s s s s s s     s s s s s s s s s s s s s s s s
      H|---X-X-X-X---X-X-X-X-X-X-X---X-X-X-|---X-X-X-X---X-X-X-X-X-O-O---X-O-O--||
      S|-----------X---------------X-------|-----------X---------------X-------:||
      T|-----------------------------------|-----------------------------------:||
      F|---X-------X-------X-------X-------|---X-------X-------X-------X--------||
       ________________________________________________________________________
       | 3.
       |   s s s s s s s s s s s s s s s s     s s s s s s s s s s s s s s s s
      H|---X-X-X-X---X-X-X-X-X-X-X---X-O-O-|---X-X-X-X---X-O-O-X-X-X-X---X-O-O--||
      S|-----------X---------------X-------|-----------X---------------X-------:||
      T|-----------------------------------|-----------------------------------:||
      F|---X-------X-------X-------X-------|---X-------X-------X-------X--------||
       _____________________________________________________________________
       | 4.                                               If we burn our wings...
       |   s s s s s s s s s s s s s s s s     s s s s s s s s s s s s s s s s
      H|---X-X-H-H---H-H-H-H-H-H-H---H-H-H-|---H-H-H-H---H-H-H-H-H-H-H-H-H-H-H-|
      S|-----------X---------------X-------|-----------X-----------------------|
      T|-----------------------------------|-----------------------------------|
      F|---X-------X-------X-------X-------|---X-------X-------X-------X-------|
      
      
           e   e   e   e   e   e   e   e       e   e   e   e   e   e   e   e
      H|---X---X---X---X---X---X---X---X---|---X---X---X---X---X---X---X---X---|
      S|-----------------------------------|-----------------------------------|
      T|-----------------------------------|-----------------------------------|
      F|---X-------X-------X-------X-------|---X-------X-------X-------X-------|
      
           s s s s q       e   e   e   e       e   e   e   e   e   e   e   e
      H|---X-X-X-X-S-------X---X---X---X---|---X---X---X---X---X---X---X---X---|
      S|-----------------------------------|-----------------------------------|
      T|-----------------------------------|-----------------------------------|
      F|---X-------X-------X-------X-------|---X-------X-------X-------X-------|
      
            e   e   e   e   e   e   e   e       e   e   e   e   e   e   e   e
      H||---X---X---X---X---X---X---X---X---|---X---X---X---X---X---X---X---X---||
      S||:----------------------------------|----------------------------------:||
      T||:----------------------------------|----------------------------------:||
      F||---X-------X-------X-------X-------|---X-------X-------X-------X-------||
      
           s s s s s s s s s s s s s s s s     s s s s s s s s s s s s s s s s
      H|---X-X-X-X-X-X-X-X-X-X-X-X-X-X-X-X-|---X-X-X-X-X-X-X-X-X-X-X-X-X-X-X-X-|
      S|-----------------------------------|-----------------------------------|
      T|-----------------------------------|-----------------------------------|
      F|---X-------X-------X-------X-------|---X-------X-------X-------X-------|
      
           s s s s s s s s s s s s s s s s     s s s s s s s s s s s s s s s s
      H|---X-X-X-X-S-X-X-X-X-X-X-X-X-X-X-X-|---X-X-X-X-X-X-X-X-X-X-X-X-X-X-X-X-|
      S|-----------------------------------|-----------------------------------|
      T|-----------------------------------|-----------------------------------|
      F|---X-------X-------X-------X-------|---X-------X-------X-------X-------|
      
           s s s s s s s s s s s s s s s s     s s s s s s s s s s s s s s s s
      H|---X-X-X-X-X-X-X-X-X-X-X-X-X-X-X-X-|---X-X-X-X-X-X-X-X-X-X-X-X-X-X-X-X-|
      S|-----------------------------------|-----------------------------------|
      T|-----------------------------------|-----------------------------------|
      F|---X-------X-------X-------X-------|---X-------X-------X-------X-------|
      
                                                           >
           s s s s s s s s s s s s s s s s     s s s s s s s s s s s s s s s s
      H|---X-X-X-X-X-X-X-X-X-X-X-X-X-X-X-X-|---X-X-X-X-X-X-X-X-X-X-O-O-X-X-O-O-|
      S|-----------------------------------|-----------------------------------|
      T|-----------------------------------|-----------------------------------|
      F|---X-------X-------X-------X-------|---X-------X-------X-------X-------|
      
                               >       >       >
           s s s s s s s s s s s s s s s s     s s s s s s s s s s s s s s s s
      H|---X-X-X-X-X-X-X-X-X-X-X-X-X-X-X-X-|---X-X-X-X-X-X-O-O-X-X-O-O-X-X-O-O-|
      S|-----------------------------------|-----------------------------------|
      T|-----------------------------------|-----------------------------------|
      F|---X-------X-------X-------X-------|---X-------X-------X-------X-------|
      
                   >           >
           s s s s s s s s s s s s s s s s     s s s s s s s s s s s s s s s s
      H|---X-X-X-X-X-X-X-X-X-X-X-X-X-X-X-X-|---H-H-H-H-H-H-H-H-H-H-H-H-H-H-H-H-|
      S|-----------------------------------|-----------------------------------|
      T|-----------------------------------|-----------------------------------|
      F|---X-------X-------X-------X-------|---X-------X-------X-------X-------|
      
           E     s e   e   e   e   e   e       e   s s e   e   e   e   e   e
      H|---S-------X---X---X---X---X---X---|---X---X---X---X---X---X---X---X---|
      S|---------------------------X-------|---------------------------X-------|
      T|-----------------------------------|-----------------------------------|
      F|---X-----X-X---X---X-----------X---|---X-----X-X---X---X-----------X---|
      
      Play 3 times
            e   s s e   e   e   e   e   e       e   s s e   e   e   e   e   e
      H||---X---X---X---X---X---X---X---X---|---X---X---X---X---X---X---X---X---||
      S||:--------------------------X-------|---------------------------X------:||
      T||:----------------------------------|----------------------------------:||
      F||---X-----X-X---X---X-----------X---|---X-----X-X---X---X-----------X---||
      
           E     s s s s s s s s s s s s s     s s s s s s s s s s s s s s s s
      H|---C---------X-X-X-X-X-X-X---X-X-X-|---X-X-X-----X-X-X-X-X-X-X---X-X-X-|
      S|---------------------------X-------|---------------------------X-------|
      T|---------4-6-----------------------|---------4-6-----------------------|
      F|---X-----------X---X-----------X---|---X-----------X---X-----------X---|
      
           s s s s s s s s s s s s s s s s     s s s s s s s s s s s s s s s s
      H|---X-X-X----X-X-X-X-X-X-X---X-X-X--|---X-X-X-----X-X-X-X-X-X-X---X-X-X-|
      S|---------------------------X-------|---------------------------X-------|
      T|---------4-6-----------------------|---------4-6-----------------------|
      F|---X-----------X---X-----------X---|---X-----------X---X-----------X---|
      
            s s s s s s s s s s s s s s s s     s s s s s s s s s s s s s s s s
      H||---X-X-X----X-X-X-X-X-X-X---X-X-X--|---X-X-X-----X-X-X-X-X-X-X---X-X-X-|
      S||:--------------------------X-------|---------------------------X-------|
      T||:--------4-6-----------------------|---------4-6-----------------------|
      F||---X-----------X---X-----------X---|---X-----------X---X-----------X---|
      
       ______________________________________________________________________
       | 1.
       |   s s s s s s s s s s s s s s s s     s s s s s s s s s s E     s e
      H|---X-X-X----X-X-X-X-X-X-X---X-X-X--|---X-X-X-----X-X-X-X-X--------------||
      S|---------------------------X-------|-----------------------X-----------:||
      T|---------4-6-----------------------|---------4-6-----------------4-6---:||
      F|---X-----------X---X-----------X---|---X-----------X---X----------------||
       _______________________________________________________________________
       | 2.
       |   s s s s s s s s s s s s s s e       e   e   Q           e   e   e
      H|---X-X-X-----X-X-X-X-X-X-X---X-r---|---r-------------------------------|
      S|---------------------------X---e---|---e---F---------------F-----------|
      T|---------4-6-------------------s---|---s-------------------------------|
      F|---X-----------X---X-----------t---|---t-------X---------------X---X---|
      
      (Guitar solo)
          q       s s s s s s s s s s s s     s s s s s s s s s s s s s s s s
      H|--C---------X-X-X-X-X-X-X---X-X-X-|---X-X-X-X---X-X-X-X-X-X-X---X-X-X-|
      S|----------X---------------X-------|-----------X---------------X-------|
      T|----------------------------------|-----------------------------------|
      F|--X-------X-------X-------X-------|---X-------X-------X-------X-------|
      
          q       s s s s s s s s s s s s     s s s s s s s s s s e   e
      H|--S---------X-X-X-X-X-X-X---X-X-X-|---X-X-X-X---X-X-X-X-X-C---C-------|
      S|----------X---------------X-------|-----------X-----------X---X-------|
      T|----------------------------------|-----------------------------------|
      F|--X-------X-------X-------X-------|---X-------X-------X-------X-------|
      
          s s s s s s s s s s s s s s s s     s s s s s s s s s s e   s s e
      H|--X-X-X-X---X-X-X-X-X-X-X---X-X-X-|---X-X-X-X---X-X-X-X-X-C-----------|
      S|----------X---------------X-------|-----------X-----------X-----X-X---|
      T|----------------------------------|-----------------------------------|
      F|--X-------X-------X-------X-------|---X-------X-------X-------X-------|
      
          q       s s s s s s s s s s s s     e   e   q       e   e   q
      H|--C---------X-X-X-X-X-X-X---X-X-X-|---X---C---C-----------C---C-------|
      S|----------X---------------X-------|-------X---X-----------X---X-------|
      T|----------------------------------|-----------------------------------|
      F|--X-------X-------X-------X-------|---X-------X-------X-------X-------|
      
          q       s s s s s s s s s s s s     s s s s s s s s s s e   s^s^s^s^s^s
      H|--C---------X-X-X-X-X-X-X---X-X-X-|---X-X-X-X---X-X-X-X-X-----------------|
      S|----------X---------------X-------|-----------X-----------X---X-X-X-X-X-X-|
      T|----------------------------------|---------------------------------------|
      F|--X-------X-------X-------X-------|---X-------X-------X-------X-----------|
      
          q       s s s s s s s s s s s s     s s s s s s s s s s e   e   e
      H|--C---------X-X-X-X-X-X-X---X-X-X-|---X-X-H---H---H---H---C---C---C---|
      S|----------X---------------X-------|-----------X-----------X---X---X---|
      T|----------------------------------|-----------------------------------|
      F|--X-------X-------X-------X-------|---X-------X-------X-------X-------|
      
          q       s s s s s s s s s s s s     s s s s s s s s s s s s s s s s
      H|--C---------X-X-X-X-X-X-X---X-X-X-|---X-X-X-X---X-X-X-H-H-H-H---H-H-H-|
      S|----------X---------------X-------|-----------X---------------X-------|
      T|----------------------------------|-----------------------------------|
      F|--X-------X-------X-------X-------|---X-------X-------X---X---X---X---|
      
                                                   And if the music stops...
           e   s s e   e   s s e   e   s s     e   e   s s e   e   e   e   e
      H|---C---H-H-H---C---H-H-H---C---H-H-|---H---C---H-H-H---H---H---H---H---|
      S|---X-----------X-----------X-------|-------X-----------X---X---X---X---|
      T|-----------------------------------|-----------------------------------|
      F|-------X---X-------X---X-------X---|---X-------X---X-------------------|
      
           E     s s s s s s s s s s s s s     s s s s s s s s s s s s s s s s
      H|---C---------X-X-X-X-X-X-X---X-X-X-|---X-X-X-----X-X-X-X-X-X-X---X-X-X-|
      S|---------------------------X-------|---------------------------X-------|
      T|---------4-6-----------------------|---------4-6-----------------------|
      F|---X-----------X---X-----------X---|---X-----------X---X-----------X---|
      
            s s s s s s s s s s s s s s s s     s s s s s s s s s s s s s s s s
      H||---X-X-X----X-X-X-X-X-X-X---X-X-X--|---X-X-X-----X-X-X-X-X-X-X---X-X-X--||
      S||:--------------------------X-------|---------------------------X-------:||
      T||:--------4-6-----------------------|---------4-6-----------------------:||
      F||---X-----------X---X-----------X---|---X-----------X---X-----------X----||
      
           s s s s s s s s s s s s s s s s     s s s s s s s s s s s s s s s s
      H|---X-X-X----X-X-X-X-X-X-X---X-X-X--|---X-X-X-----X-H-H-H-H-H-H---H-H-H-|
      S|---------------------------X-------|---------------------------X-------|
      T|---------4-6-----------------------|---------4-6-----------------------|
      F|---X-----------X---X-----------X---|---X-----------X---X---X---X---X---|
      
           e   e   e   e   e   e   e   e       e   e   e   e   e   e   e   e
      H|---X---X---X---X---X---X---X---X---|---X---X---X---X---X---X---X---X---|
      S|-----------------------------------|-----------------------------------|
      T|-----------------------------------|-----------------------------------|
      F|---X-------X-------X-------X-------|---X-------X-------X-------X-------|
      
           s s s s q       e   e   e   e       s s s s s s s s s s s s s s s s
      H|---X-X-X-X-S-------X---X---X---X---|---X-X-X-X-X-X-O-O-X-X-O-O-X-X-O-O-|
      S|-----------------------------------|-----------------------------------|
      T|-----------------------------------|-----------------------------------|
      F|---X-------X-------X-------X-------|---X-------X-------X-------X-------|
      
           s s s s s s s s s s s s s s s s     s s s s s s s s s s s s s s s s
      H|---X-X-X-X---X-X-X-X-X-X-X-X-X-X-X-|---X-X-X-X---X-X-X-X-X-O-O-X-X-O-O-|
      S|-----------X-----------------------|-----------X-----------------------|
      T|-----------------------------------|-----------------------------------|
      F|---X-------X-------X-------X-------|---X-------X-------X-------X-------|
      
           s s s s s s s s s s s s s s s s     e   E     s e   e   e   s s e
      H|---X-X-X-X---X-X-X-X-X-O-O-X-X-X-X-|---X-------------------------------|
      S|-----------X-----------------------|-------X-----X-----X---------------|
      T|-----------------------------------|---------------5-------6---6-6-7---|
      F|---X-------X-------X-------X-------|---X-------------------------------|
      
           E     s s s s s s s s s s s s s     s s s s s s s s s s s s s s s s
      H|---C---------X-X-X-X-X-X-X---X-X-X-|---X-X-X-----X-X-X-X-X-X-X---X-X-X-|
      S|---------------------------X-------|---------------------------X-------|
      T|---------4-6-----------------------|---------4-6-----------------------|
      F|---X-----------X---X-----------X---|---X-----------X---X-----------X---|
      
           s s s s s s s s s s s s s s s s     e   s e   s e   s s s s tttts s
      H|---X-X-X-----X-X-X-X-X-X-X---X-X---|-----------------------------------|
      S|---------------------------X-------|---X-----X---X-----X---X-X-----X-X-|
      T|---------4-6---------------------5-|-------5-------5-----5-----5555----|
      F|---X-----------X---X-----------X---|-----------------------------------|
      
           E     s s s s s s s s s s s s s     s s s s s s s s s s s s s s s s
      H|---C---------X-B-X-X-X-B-X---X-B-X-|---X-X-B-----X-B-O-X-X-B-X---X-B-X-|
      S|---------------------------X-------|---------------------------X-------|
      T|---------4-6-----------------------|---------4-6-----------------------|
      F|---X-----------X---X-----------X---|---X-----------X---X-----------X---|
      
           s s s s s s s s s s s s s s s s     s s s s s s s s s s s s s s s s
      H|---X-X-B-----X-B---X-X-B-X---X-B-X-|---X-X-B-----X-B-O-X-X-B-X---X-B-X-|
      S|-----------------X---------X-------|---------------------------X-------|
      T|---------4-6-----------------------|---------4-6-----------------------|
      F|---X-----------X-------X-------X---|---X-----------X---X-----------X---|
      
           s s s s s s s s s s s s s s s s     s s s s s s s s s s s s s s s s
      H|---X-X-B-----X-B---X-X-B-X---X-B-X-|---X-X-B-----X-B-O-X-X-B-X---X-B-X-|
      S|-----------------X-----X---X---X-X-|---------------------------X-------|
      T|---------4-6-----------------------|---------4-6-----------------------|
      F|---X-------------------------------|---X-----------X---X-----------X---|
      
           s s s s s s s s s s s s s s s s     e   s e   e tttts s tttts s s s
      H|---X-X-B-----X-B-X-X-X-B-X---X-X---|-----------------------------------|
      S|---------------------------X-------|---X-----X---X-----X-X-----X-X-X-X-|
      T|---------4-6---------------------5-|-------5-------5555----5555--------|
      F|---X-----------X---X-----------X---|-----------------------------------|
      
           E     s s s s s s s s s s s s s     s s s s s s s s s s s s s s s s
      H|---C---------X-B-X-X-X-B-X---X-B-X-|---X-X-B-----X-B---X-X-B-X---X-B-X-|
      S|---------------------------X-------|-----------------X---------X-------|
      T|---------4-6-----------------------|---------4-6-----------------------|
      F|---X-----------X---X-----------X---|---X-----------X-------X-------X---|
      
           s s s s s s s s s s s s s s s s     E     s s s s s s s s s s s s s
      H|---X-X-B-----X-B---X-X-B-X---X-B-X-|---C---------X-B-O-X-X-B-X---X-B-X-|
      S|-----------------X-----X-------X-X-|---------------------------X-------|
      T|---------4-6---------------4-------|---------4-6-----------------------|
      F|---X-------------------------------|---X-----------X---X---------------|
      
           s s s s s s s s s s s s s s s s     s s s s s s s s s s s s s s s s
      H|---X-X-B-----X-B---X-X-B-X---X-B-X-|---X-X-B-----X-B-O-X-X-B-X---X-B-X-|
      S|-----------------X---------X---X-X-|---------------------------X-------|
      T|---------4-6-----------------------|---------4-6-----------------------|
      F|---X-------------------X-----------|---X-----------X---X-----------X---|
      
           s s s s s s s e   s tttts s s s     tttts s s s s s s s s s s^s^s^s^s^s
      H|---X-X-B---------------------------|---------------------------------------|
      S|-----------X-X---X---X-XXXXX-X---X-|-------X-X-X-X-X-X-X-X-X-X-X-X-X-X-X-X-|
      T|---------4-----4---------------4---|---4444--------------------------------|
      F|---X-------------------------------|---------------------------------------|
      
           q       e   e   e   e   e   e       e   e   e   e   e   e   e   e
      H|---C-------X---X---X---X---X---X---|---X---X---X---X---X---X---X---X---|
      S|-----------X---------------X-------|-----------X---------------X---X---|
      T|-----------------------------------|-----------------------------------|
      F|---X-----------X---X---X-------X---|---X---X-------X---X---X-----------|
      
           e   e   e   e   e   e   e   e       e   e   e   e   e   s s s s s s
      H|---X---X---X---X---X---X---X---X---|---X---X---X---X---X---------------|
      S|-----------X---------------X-------|-----------X-----------X-X-X-X-X-X-|
      T|-----------------------------------|-----------------------------------|
      F|---X-----------X---X---X-------X---|---X---X-------X---X---X---X---X---|
      
           e   e   e   e   e   e   e   e       e   e   e   e   e   e   e   s s
      H|---X---X---X---X---X---X---X---X---|---X---X---X---X---X---X---X---X---|
      S|-----------X---------------X-------|-----------X---------------X---X-X-|
      T|-----------------------------------|-----------------------------------|
      F|---X-----------X---X---X-------X---|---X---X-------X---X---X-----------|
      
           e   e   e   e   e   e   e   e       e   e   e   e   e   s s s s s s
      H|---X---X---X---X---X---X---X---X---|---X---X---X---X---X---------------|
      S|-----------X---------------X-------|-----------X-------------X-X-X-X-X-|
      T|-----------------------------------|-----------------------------------|
      F|---X-----------X---X---X-------X---|---X---X-------X---X---X---X---X---|
      
      Fade out
           e   e   e   e   e   e   e   e       e   e   e   e   e   e   e   s s
      H|---X---X---X---X---X---X---X---X---|---X---X---X---X---X---X---X-------|
      S|-----------X---------------X-------|-----------X---------------X---X-X-|
      T|-----------------------------------|-----------------------------------|
      F|---X---X-----------X---X-------X---|---X---X-------X---X---X-----------|
      
           e   e   e   e   e   e   e   e       e   e   e   e   e   e   e   e
      H|---X---X---X---X---X---X---X---X---|---X---X---X---X---X---X---X---X---|
      S|-----------X---------------X-------|-----------X---------------X---X---|
      T|-----------------------------------|-----------------------------------|
      F|---X---X-----------X---X-------X---|---X---X-------X---X---X-----------|
      
           e   e   e   e   e   e   e   e       e   e   e   e   e   e   e   s s
      H|---X---X---X---X---X---X---X---X---|---X---X---X---X---X---X---X-------|
      S|-----------X---------------X-------|-----------X---------------X---X-X-|
      T|-----------------------------------|-----------------------------------|
      F|---X---X-----------X---X-------X---|---X---X-------X---X---X-----------|
      
           e   e   e   e   e   e   e   e       e   e   e   e   e   s s s s s s
      H|---X---X---X---X---X---X---X---X---|---X---X---X---X---X---------------|
      S|-----------X---------------X-------|-----------X-------------X-X-X-X-X-|
      T|-----------------------------------|-----------------------------------|
      F|---X-----------X---X---X-------X---|---X---X-------X---X---X-----------|
      __________________________________________________________________________
      
      KEY:
      
       Hi-hats & Cymbals  -O-X-H--C-R-B-S-T-c-
                   Snare  -X-S-R-F------------
                     Tom  -1-2-3-4-5-6-7-X----
             Foot Pedals  -X-P----------------
      
      
      Hi-hats & Cymbal line:
      
      Hi-hats  O - OPEN HH
               X - CLOSED HH
               P - PEDAL HH
               H - HALF OPEN HH
      Cymbals  C - CRASH
               c - CRASH CHOKE
               R - RIDE
               B - RIDE BELL
               S - SPLASH
               T - CHINA (AKA TRASH)
      
      Snare line:
           X - SINGLE HIT
           R - RIMSHOT
           F - FLAM (Hit with both sticks, one slightly before the other)
           S - SIDE STICK
           x - GRACE NOTE (hit snare slightly and right before the prime note)
      
      Tom line:
              Notated by number. 1 being the highest sounding to the lowest tom.
              (The numbers depend on how many toms Neil is using in any given song,
              it's up to you to fit them into your drumset.)
              X - Floor tom
       NOTE - Originally this key had two tom lines, but I decided to use
              just one too keep it simpler.
              A second tom line will be added to the bar ONLY if two toms are
              played at once.
       Foot Pedal line:
              X - KICK DRUM
              P - Hi-hat pedal
              When the right and left kick drums are being used together they will
              be notated with a right (R) or a left (L)
      
      Rhythm:
      w whole note                    W dotted whole note
      h half note                     H dotted half note
      q quarter note                  Q dotted quarter note
      e eighth note                   E dotted eighth note
      s sixteenth note                S dotted sixteenth note
      t thirty-second note            T dotted thirty-second note
      
      % - Repeat last measure
      
      Fermata - Hold the note at pleasure
      
      > - Accent: When a note is given special emphasis
      
      ||----||
      ||o--o||  Repeat
      ||o--o||  Signs
      ||----||
      
      
      
      
      
      Contribuição: Cristina (crisgs@msn.com)

      Comentários 0

      140 .
      140 cancelar

      conseguiu tocar?

      covers

      Grave um vídeo tocando Bravado e mande pra gente!

      Ex.: http://www.youtube.com/watch?v=0IvSvIwGdwk
      ver covers de outras músicas »
      0:00 / 0:00

      Capítulos

        1 versão de violão dificuldade exibições contribuição e correção
        1 versão de guitarra dificuldade exibições contribuição e correção
        1 versão de cavaco dificuldade exibições contribuição e correção
        1 versão de teclado dificuldade exibições contribuição e correção
        2 versões de baixo exibições contribuição e correção
        1 versão de bateria exibições contribuição e correção
        1 versão de Guitar Proformatodownloadscontribuição
        play/pausefechar subir/descer velocidade
        6ª corda E5ª corda A4ª corda D3ª corda G2ª corda B1ª corda E
          acordes
          publicidade
          fechar
          ok