Cifra Club

Aprenda

Ana´S Song ( Open Fire )

Silverchair

Cifra: Principal (violão e guitarra)
tom: Bb
Versão 1:


Eb         Cm   Gm
Please die Ana        
       Eb            Cm      Gm
For as long as you're here we're not     
     Eb        Cm        Gm
You make the sound of laughter     
      Eb         Cm        G
And sharpened nails seem softer

Eb       Cm      Gm
And I need you now somehow       
       Eb      Cm      Gm         F 
And I need you now somehow 

E                F#m
Open fire on the needs designed                
      A                   Am
On my knees for you
E               F#m
Open fire on my knees desires                
       A                  Am
What I need from you

|---------------------|
|---------------------|
|--5-5-5------------|    Antes do solo
|--5-5-5--5-5-5---|
|--3-3-3--5-5-5---|
|-----------3-3-3---|

|---------------------------------||
|---------------------------------||
|----3---------------------------||        Solo
|---------------------------------||
|--1---1/10-11-10\3--3/5--||
|---------------------------------||

Eb         Cm     Gm
Imagine a pageant
       Eb       Cm          Gm
In my head the flesh seems thicker
||-------------------------
||---------------------------
||--8-8--8--8----------------        distorçao
||--8-8--8--8--5-5-3-5--5-3--|
||--6-6--6--6--5-5-3-5--5-3--|
||--6-6--6--6--3-3-3-3--3-3--|

Sandpaper tears corrode the filth 
                                           
Eb       Cm      Gm
And I need you now somehow      
Eb       Cm      Gm
And I need you now somehow
E                F#m
Open fire on the needs designed      
      A          Am  C  D
On my knees for you
E               F#m
Open fire on my knees desires      
       A           Am
What I need from you

And you're my obsession
|---------------------------------------||
|---------------------------------------|
|--5-5-5-5-------------------3------||
|--5-5-5-5-3-3-3-3-2-2--2-------||
|--3-3-3-3-3-3-3-3-2-2--1-------||
|-------------1-1-1-1-0-0----------||

I love you to the bones
|---------------------------------------||
|---------------------------------------|
|--5-5-5-5-------------------3------||
|--5-5-5-5-3-3-3-3-2-2--2-------||
|--3-3-3-3-3-3-3-3-2-2--1-------||
|-------------1-1-1-1-0-0----------||

And Ana wrecks your life
---------------------------------------||
|---------------------------------------|
|--5-5-5-5-------------------3------||
|--5-5-5-5-3-3-3-3-2-2--2-------||
|--3-3-3-3-3-3-3-3-2-2--1-------||
|-------------1-1-1-1-0-0----------||
Like an Anorexia life
---------------------------------------||
|---------------------------------------|
|--5-5-5-5-------------------3------||
|--5-5-5-5-3-3-3-3-2-2--2-------||
|--3-3-3-3-3-3-3-3-2-2--1-------||
|-------------1-1-1-1-0-0----------||

E                F#m
Open fire on the needs designed                
      A                   Am
On my knees for you         
E                F#m
Open fire on the needs designed     3X           
      A             C C C G G G
On my Knees For you 
                                                         
Faça  3x o refrao  usando os power chords
E (x799xx)              
A  (577xxx                    
F#m (244xxx)
C (x355xx)
G (355xxx)
                      
_______________________________________________________

Versão 2:

(Eb Cm Gm)
Please die Ana
For as long as you're here we're not
You make the sound of laughter
And sharpened nails seem softer
And I need you now somehow
And I need you now somehow

Bb F

E         F#m                          A
Open fire on the needs designed, on my knees for you
E         F#m                         A
Open fire on my knees desires, what I need from you

(D# Cm Gm) x2

(Eb Cm Gm)
Imagine a pageant
In my head the flesh seems thicker
Sandpaper tears corrode the film
And I need you now somehow
And I need you now somehow

Eb Cm Gm Bb F

E         F#m                          A             Am C G
Open fire on the needs designed, on my knees for you
E         F#m                         A             Am C G
Open fire on my knees desires, what I need from you

(C D E)
And you're my obsession
I love you to the bones
And Ana wrecks your life

Like an Anorexia life
Open fire on the needs designed
On my knees for you

Am C G

E         F#m                         A             Am C G
Open fire on my knees desires, what I need from you
E         F#m                 A Am C G
Open fire on my knees desires
E         F#m                         A             Am C G
Open fire on my knees desires, what I need from you

(E F#m A)

_______________________________________________________

--- [ tablatura ] ---


Afinação Padrão (EADGBE)

Legenda:
\ - slide down
/ - slide up
x - muted string
 - harmonic
* - special info pertaining to part

[Verse] - (two guitars arranged for one - clean)
|------------------------------|
|--8-8-8--4-4-4----------------|
|--8-8-8--5-5-5--3-3-3-3--3-3--|
|--8-8-8--5-5-5--5-5-3-5--5-3--|
|--6-6-6--3-3-3--5-5-3-5--5-3--|
|--6-6-6--3-3-3--3-3-3-3--3-3--|

Guitar 3 (clean)
|-------------------------------------|
|---------------4--------3-------3----|
|------8----------5----3---3-------3--|
|----8---8----5-----------------------|
|--6--------3-------------------------|
|--------------------3-------3--------|

|-------------------------------||-------------------------------|
|--8-8-8-\-4-4-4----------------||--8-8-8-\-4-4-4----------------|
|--8-8-8-\-5-5-5--3-3-3-3--3-3--||--8-8-8-\-5-5-5--3-3-3-3--3-3--|
|--8-8-8-\-5-5-5--5-5-3-5--5-3--||--8-8-8-\-5-5-5--5-5-3-5--5-3--|
|--6-6-6-\-3-3-3--5-5-3-5--5-3--||--6-6-6-\-3-3-3--5-5-3-5--5-3--|
|--6-6-6-\-3-3-3--3-3-3-3--3-3--||--6-6-6-\-3-3-3--3-3-3-3--3-3--|

|------------------------------|
|--8-8-8--4-4-4----------------|
|--8-8-8--5-5-5--3-3-3-3--3-3--|
|--8-8-8--5-5-5--5-5-3-5--5-3--|
|--6-6-6--3-3-3--5-5-3-5--5-3--|
|--6-6-6--3-3-3--3-3-3-3--3-3--|

Please die Ana
For as long as you're here we're not
You make the sound of laughter
And sharpened nails seem softer

(distortion - pickups in rhythm position)
|-------------------------||-------------------------|
|-------------------------||-------------------------|
|----3--------------------||----3--------------------|
|-------------------------||-------------------------|
|--1---1/10-11-10\3--3/5--||--1---1/10-11-10\3--3/5--|
|-------------------------||-------------------------|

And I need you now somehow
And I need you now somehow

[Bridge] (distortion)
|----------------|
|----------------|
|--3-3-3--2-2-2--|
|--3-3-3--3-3-3--|
|--1-1-1--3-3-3--|
|---------1-1-1--|

[Chorus] (distortion)
|------0-------0---------0-------0------0-------0-------0-------0--|
|------0-------0---------0-------0------0-------0-------0-------0--|
|------1-------1---------2-------2--2-2-2-2-2-2-2-2-2-2-2-2-2-2-2--|
|--2-2-2-2-2-2-2-----4-4-4-4-4-4-4--2-2-2-2-2-2-2-2-2-2-2-2-2-2-2--|
|--2-2-2-2-2-2-2-----x-x-x-x-x-x-x--0-0-0-0-0-0-0-0-0-0-0-0-0-0-0--|
|--0-0-0-0-0-0-0--0--2-2-2-2-2-2-2---------------------------------|

|------0-------0---------0-------0-----|
|------0-------0---------0-------0-----|
|------1-------1---------2-------2--2--|
|--2-2-2-2-2-2-2-----4-4-4-4-4-4-4--2--|
|--2-2-2-2-2-2-2-----x-x-x-x-x-x-x--0--|
|--0-0-0-0-0-0-0--0--2-2-2-2-2-2-2-----|

Open fire on the needs designed
On my knees for you
Open fire on my knees desires
What I need from you

[Verse]

Rhythm Guitar (distortion thick)
|-------------------------------||-------------------------------|
|-------------------------------||-------------------------------|
|--8-8-8-\-5-5-5----------------||--8-8-8-\-5-5-5----------------|
|--8-8-8-\-5-5-5--5-5-3-5--5-3--||--8-8-8-\-5-5-5--5-5-3-5--5-3--|
|--6-6-6-\-3-3-3--3-3-3-3--3-3--||--6-6-6-\-3-3-3--3-3-3-3--3-3--|
|--6-6-6-\-3-3-3--3-3-3-3--3-3--||--6-6-6-\-3-3-3--3-3-3-3--3-3--|

Lead Guitar (distortion - pickups in rhythm position)
|-----------||-------------------------||-------------------------|
|-----------||-------------------------||-------------------------|
|--------||----3--------------------||----3--------------------|
|--------||-------------------------||-------------------------|
|-----------||--1---1/10-11-10\3--3/5--||--1---1/10-11-10\3--3/5--|
|-----------||-------------------------||-------------------------|

Imagine a pageant
In my head the flesh seems thicker

Rhythm Guitar (thick distortion)
|--------------||--------------||---------------------------|
|--------------||--------------||---------------------------|
|---  rest  ---||---  rest  ---||--8-8--8--8----------------|
|--------------||--------------||--8-8--8--8--5-5-3-5--5-3--|
|--------------||--------------||--6-6--6--6--5-5-3-5--5-3--|
|--------------||--------------||--6-6--6--6--3-3-3-3--3-3--|

Sandpaper tears corrode the filth

(distortion - pickups in rhythm position)
|-------------------------||-------------------------|
|-------------------------||-------------------------|
|----3--------------------||----3--------------------|
|-------------------------||-------------------------|
|--1---1/10-11-10\3--3/5--||--1---1/10-11-10\3--3/5--|
|-------------------------||-------------------------|

And I need you now somehow
And I need you now somehow

[Bridge] (distortion)
|------------------------------------|
|------------------------------------|
|--3-3-3-3-3-3-3-3-------------------|
|--3-3-3-3-3-3-3-3--3-3-3-3-3-3-3-3--|
|--1-1-1-1-1-1-1-1--3-3-3-3-3-3-3-3--|
|-------------------1-1-1-1-1-1-1-1--|

[Chorus] (distortion)
|------0-------0---------0-------0------0-------0-----0--||----------------|
|------0-------0---------0-------0------0-------0-1-1-1--||----------------|
|------1-------1---------2-------2--2-2-2-2-2-2-2-2-2-2--||--5-5-5---------|
|--2-2-2-2-2-2-2-----4-4-4-4-4-4-4--2-2-2-2-2-2-2-2-2-2--||--5-5-5--5-5-5--|
|--2-2-2-2-2-2-2-----x-x-x-x-x-x-x--0-0-0-0-0-0-0-0-0-0--||--3-3-3--5-5-5--|
|--0-0-0-0-0-0-0--0--2-2-2-2-2-2-2-----------------------||---------3-3-3--|

|------0-------0---------0-------0------0-------0-----0--||----------------|
|------0-------0---------0-------0------0-------0-1-1-1--||----------------|
|------1-------1---------2-------2--2-2-2-2-2-2-2-2-2-2--||--5-5-5---------|
|--2-2-2-2-2-2-2-----4-4-4-4-4-4-4--2-2-2-2-2-2-2-2-2-2--||--5-5-5--5-5-5--|
|--2-2-2-2-2-2-2-----x-x-x-x-x-x-x--0-0-0-0-0-0-0-0-0-0--||--3-3-3--5-5-5--|
|--0-0-0-0-0-0-0--0--2-2-2-2-2-2-2-----------------------||---------3-3-3--|

Open fire on the needs designed
On my knees for you
Open fire on my knees desires
What I need from you

|--------------------------||--------------------------|
|--------------------------||--------------------------|
|--5-5-5-5-7-7-7-7-9-9--3--||--5-5-5-5-7-7-7-7------3--|
|--5-5-5-5-7-7-7-7-9-9--2--||--5-5-5-5-7-7-7-7-2-2--2--|
|--3-3-3-3-5-5-5-5-7-7--1--||--3-3-3-3-5-5-5-5-2-2--1--|
|--------------------------||------------------0-0-----|

|--------------------------||-------------------------0--|
|--------------------------||-----------------------0----|
|--5-5-5-5--------------3--||------3---------------------|
|--5-5-5-5-3-3-3-3-2-2--2--||----3---3-----3-------------|
|--3-3-3-3-3-3-3-3-2-2--1--||--1---------3---3----2------|
|----------1-1-1-1-0-0-----||----------1--------0--------|
                               * distortion off
And you're my obsession
I love you to the bones
And Ana wrecks your life
Like an Anorexia life

[Bridge 2] (distortion)

Open fire on the needs designed
On my knees for you

|----------------|
|----------------|
|--5-5-5---------|
|--5-5-5--5-5-5--|
|--3-3-3--5-5-5--|
|---------3-3-3--|

[Chorus] (distortion)
|------0-------0---------0-------0------0-------0-----0--||----------------|
|------0-------0---------0-------0------0-------0-1-1-1--||----------------|
|------1-------1---------2-------2--2-2-2-2-2-2-2-2-2-2--||--5-5-5---------|
|--2-2-2-2-2-2-2-----4-4-4-4-4-4-4--2-2-2-2-2-2-2-2-2-2--||--5-5-5--5-5-5--|
|--2-2-2-2-2-2-2-----x-x-x-x-x-x-x--0-0-0-0-0-0-0-0-0-0--||--3-3-3--5-5-5--|
|--0-0-0-0-0-0-0--0--2-2-2-2-2-2-2-----------------------||---------3-3-3--|

|------0-------0---------0-------0------0-------0-----0--||----------------|
|------0-------0---------0-------0------0-------0-1-1-1--||----------------|
|------1-------1---------2-------2--2-2-2-2-2-2-2-2-2-2--||--5-5-5---------|
|--2-2-2-2-2-2-2-----4-4-4-4-4-4-4--2-2-2-2-2-2-2-2-2-2--||--5-5-5--5-5-5--|
|--2-2-2-2-2-2-2-----x-x-x-x-x-x-x--0-0-0-0-0-0-0-0-0-0--||--3-3-3--5-5-5--|
|--0-0-0-0-0-0-0--0--2-2-2-2-2-2-2-----------------------||---------3-3-3--|

|------0-------0---------0-------0--0--|
|------0-------0---------0-------0--0--|
|------1-------1---------2-------2--2--|
|--2-2-2-2-2-2-2-----4-4-4-4-4-4-4--2--|
|--2-2-2-2-2-2-2-----x-x-x-x-x-x-x--0--|
|--0-0-0-0-0-0-0--0--2-2-2-2-2-2-2-----|
                                    * let ring
|----------------|
|----------------|
|--5-5-5---------|
|--5-5-5--5-5-5--|
|--3-3-3--5-5-5--|
|---------3-3-3--|

|------0-------0---------0-------0--0--|
|------0-------0---------0-------0--0--|
|------1-------1---------2-------2--2--|
|--2-2-2-2-2-2-2-----4-4-4-4-4-4-4--2--|
|--2-2-2-2-2-2-2-----x-x-x-x-x-x-x--0--|
|--0-0-0-0-0-0-0--0--2-2-2-2-2-2-2-----|
                                    * let ring
Open fire on my knees desires
What I need from you
Open fire on the needs designed
Open fire on my knees desires
On my knees for you
Composição de Daniel Johns
Colaboração e revisão:
  • Anna Gabriella
183.689 exibições
    • ½ Tom
    • A
    • Bb
    • B
    • C
    • Db
    • D
    • Eb
    • E
    • F
    • F#
    • G
    • Ab
  • Adicionar à lista

    0 comentários

    Ver todos os comentários

    Conseguiu tocar?

    3 Tocaram 0 Ainda não

    Grave um vídeo tocando Ana´S Song ( Open Fire ) e nos envie!

    00:00 / 00:00
    Outros vídeos desta música
    Repetir Qualidade Automático
    Outros vídeos desta música
    00:00 / 00:00
    Automático

    Cifra Club Pro

    Aproveite o Cifra Club com benefícios exclusivos e sem anúncios
    Cifra Club Pro
    Aproveite o Cifra Club com benefícios exclusivos e sem anúncios
    OK