Cifra Club

Aprenda

Living On A Prayer

Sungha Jung

Cifra: Principal (violão e guitarra)
tom: G
Parte 1:
                                                          
E|--0-----------------------|--------------------------| 
B|--0-----------------------|--------------------------| 
G|--0-----------------------|--------------------------| 
D|-----2-----0-----------0--|-----2-----0-----------0--| 
A|--------2-----------2-----|--------2-----------2-----| 
E|--0-----------0--0--------|--0-----------0--0--------| 
                                                       
E|--0-----------------------|--0-----------------------| 
B|--1-----------------------|--3-----------------------| 
G|--0-----------------------|--2-----------------------| 
D|-----2-----0-----------0--|--2--2-----0-----------0--| 
A|--------2-----------2-----|--------2-----------2-----| 
E|--0-----------0--0--------|--0-----------0--0--------| 
                                                       
E|--0-----------------------|--------------------------| 
B|--0-----------------------|--------------------------| 
G|--0-----------------------|--------------------------| 
D|-----2-----0-----------0--|-----2-----0-----------0--| 
A|--------2-----------2-----|--------2-----------2-----| 
E|--0-----------0--0--------|--0-----------0--0--------| 
                                                       
E|--3--3--2p-0--0-----0--0--|--------------------------| 
B|-----------------3--------|-----0--------------------| 
G|--------------------------|--------------------------| 
D|-----2-----0-----------0--|-----2-----0-----------0--| 
A|--------2-----------2-----|--------2-----------2-----| 
E|--0-----------0--0--------|--0-----------0--0--------| 
                                                        
E|--3--3--2--0--0--------2h-|--3--2-----0--0-----------| 
B|--------------------------|--------------------0-----| 
G|--------------------------|--------------------------| 
D|-----2-----0-----------0--|-----2-----0-----------0--| 
A|--------2-----------2-----|--------2-----------2-----| 
E|--0-----------0--0--------|--0-----------0--0--------| 
                                  
      
E|--------------------------|--------------------------|           
B|--------------------------|--3--------------0--------| 
G|--2--0--------------------|-----------------------2--| 
D|--------------------------|--4--------------0--0--0--| 
A|--3--3--3--3--3--3--3--3/-|--5--5--5--5--5-----------| 
E|--------------------------|--------------------------| 
  
Intro:
                                              
E|--------------------------|--------------------------|           
B|-----0--------------------|--------------------------| 
G|--------------------------|--------------------------| 
D|-----2-----0-----------0--|-----2-----0-----------0--| 
A|--------2-----------2-----|--------2-----------2-----| 
E|--0-----------0--0--------|--0-----------0--0--------| 

Verso 1:
                                                      
E|--3--3--2p-0--0-----0--0--|--------------------------| 
B|-----------------3--------|-----0--------------------|          
G|--------------------------|--------------------------| 
D|-----2-----0-----------0--|-----2-----0-----------0--| 
A|--------2-----------2-----|--------2-----------2-----| 
E|--0-----------0--0--------|--0-----------0--0--------| 
                                                       
E|--3--3--2--0--0--------2h-|--3--2-----0--0-----------| 
B|--------------------------|--------------------0-----| 
G|--------------------------|--------------------------| 
D|-----2-----0-----------0--|-----2-----0-----------0--| 
A|--------2-----------2-----|--------2-----------2-----| 
E|--0-----------0--0--------|--0-----------0--0--------| 

                                     
E|--------------------------|--------------------------|      
B|--------------------------|--------------0-----------| 
G|--2--0--------------------|--------0-----------0h-2/-| 
D|--------------------------|-----4-----4-----4--------| 
A|--3--3--3--3--3--3--3--3/-|--5-----------------------| 
E|--------------------------|--------------------------| 
                                                                                 
E|-------------------------|-------------------------|-0----------------------|         
B|---0---------------------|-------------0--3--3--0--|----------3----x--3p-0--| 
G|-2-----------------------|-------------------------|----------2----x--2-----| 
D|----2-----0-----------0--|----2-----0-----0-----0--|----------0----0--0-----| 
A|-------2-----------2-----|-------2-----------2-----|-3--2--0----------------| 
E|-0-----------0--0--------|-0-----------0-----------|------------------------| 
                                                                              
E|--------0----0----x--0--|----0--0--0-------------|---------0----0----x--0--| 
B|-3-----------0----x--1--|----1--1--1--3----3p-0--|--3-----------0----x--1--| 
G|-------------0----x--0--|----0--0--0--2----2-----|--------------0----x--0--| 
D|----3h4------2----x--2--|----2--2--2--0----0-----|-----3h4------2----x--2--| 
A|-------------2----x--3--|----3--3--3-------------|--------------2----x--3--| 
E|-------------0----------|------------------------|--------------0----------| 
                                                                             
E|----0--0--0-------------|-------0---------------|-----------------0--0--0--| 
B|----1--1--1--3----3p-0--|--3---------0----------|--------------1--1--1--1--| 
G|----0--0--0--2----2-----|--2----2----0----2p-0--|--2p-0-----0--0--0--0--0--| 
D|----2--2--2--0----0-----|--0---------2----2-----|-----2--2--2--2--2--2--2--| 
A|----3--3--3-------------|-----------------------|--3--3--3--3--3--3--3--3--| 
E|------------------------|------------0----0-----|--------------------------| 
                                                                          
E|--3---2---0--0--x-------|--3-------3----3-----3--|----3--2----0---------| 
B|--3---3---3--3--x----x--|--0----x--1----1--x--3--|----3--3----3----3----| 
G|--2---2---2--2--x----x--|--0----x--0----0--x--2--|----2--2----2----2----| 
D|--0---0---0--0--x----x--|--2----x--2----2--x--0--|----0--0----0----0----| 
A|----------------x----x--|--2----x--3----3--x-----|----------------------| 
E|----------------x-------|--0---------------------|----------------------| 
                                                                               
E|-7-------8-----8------8--|-----8--7---------------|--3--3/-5--3----3-----3--| 
B|------x--8-----8---x--8--|-----8--8----8----10----|--0--------1----1--x--3--| 
G|-0----x--9-----9---x--7--|-----7--7----7----7-----|--0--------0----0--x--2--| 
D|-0----x--10----10--x--0--|--0--0--0----0----0-----|--2--------2----2--x--0--| 
A|------x--10----10--x-----|------------------------|--2--------3----3--x-----| 
E|-3-------8-----8---------|------------------------|--0----------------------| 
                                                                             
E|-----3--2----0---------|--7-------8-----8------8--|-----8--7---------------| 
B|-----3--3----3----3----|-------x--8-----8---x--8--|-----8--8----8----10----| 
G|-----2--2----2----2----|--0----x--9-----9---x--7--|-----7--7----7----7-----| 
D|--0--0--0----0----0----|--0----x--10----10--x--0--|--0--0--0----0----0-----| 
A|-----------------------|-------x--10----10--x-----|------------------------| 
E|-----------------------|--3-------8-----8---------|------------------------| 
                                                       
E|--0--0--------------------|--------------------------| 
B|--0--0--------------------|--------------------------| 
G|--0--0--------------------|--------------------------| 
D|--2--------0-----------0--|-----2-----0-----------0--| 
A|--2-----2-----------2-----|--------2-----------2-----| 
E|--0-----------0--0--------|--0-----------0--0--------| 
                                                       
E|--------------------------|--0-----------------------| 
B|--------------------------|--3-----------------------| 
G|-----0--------------------|--2-----------------------| 
D|-----------0-----------0--|-----2-----0-----------0--| 
A|--------2-----------2-----|--------2-----------2-----| 
E|--0-----------0--0--------|--0-----------0--0--------| 
                                                                 
E|--0-----------------------|--5-6-5-3-5-3---3-------------------| 
B|--0-----------------------|--------------5---5-3---3-----------| 
G|--0-----------------------|----------------------4---4-2-4-----| 
D|-----2-----0-----------0--|--------------------------------2-0-| 
A|--------2-----------2-----|------------------------------------| 
E|--0-----------0--0--------|------------------------------------| 
                                                      
E|--3--3--2p-0--0-----0--0--|--------------------------| 
B|-----------------3--------|-----0--------------------| 
G|--------------------------|--------------------------| 
D|-----2-----0-----------0--|-----2-----0-----------0--| 
A|--------2-----------2-----|--------2-----------2-----| 
E|--0-----------0--0--------|--0-----------0--0--------| 
             
E|--3--3--2--0--0--------2h-|--3--2-----0--0-----------| 
B|--------------------------|--------------------0-----| 
G|--------------------------|--------------------------| 
D|-----2-----0-----------0--|-----2-----0-----------0--| 
A|--------2-----------2-----|--------2-----------2-----| 
E|--0-----------0--0--------|--0-----------0--0--------| 
                                             
E|--------------------------|--------------------------| 
B|--------------------------|--3--------------0--------| 
G|--2--0--------------------|-----------------------2--| 
D|--------------------------|--4--------------0--0--0--| 
A|--3--3--3--3--3--3--3--3/-|--5--5--5--5--5-----------| 
E|--------------------------|--------------------------| 
                                            
E|--------------------------|--------------------------| 
B|-----0--------------------|--------------------------| 
G|--------------------------|--------------------------| 
D|-----2-----0-----------0--|-----2-----0-----------0--| 
A|--------2-----------2-----|--------2-----------2-----| 
E|--0-----------0--0--------|--0-----------0--0--------| 
                                       
E|--3--3--2p-0--0-----0--0--|--------------------------| 
B|-----------------3--------|-----0--------------------| 
G|--------------------------|--------------------------| 
D|-----2-----0-----------0--|-----2-----0-----------0--| 
A|--------2-----------2-----|--------2-----------2-----| 
E|--0-----------0--0--------|--0-----------0--0--------| 
                                     
E|--3--3--2--0--0--------2h-|--3--2-----0--0-----------| 
B|--------------------------|--------------------0-----| 
G|--------------------------|--------------------------| 
D|-----2-----0-----------0--|-----2-----0-----------0--| 
A|--------2-----------2-----|--------2-----------2-----| 
E|--0-----------0--0--------|--0-----------0--0--------| 
                                   
E|--------------------------|--------------------------| 
B|--------------------------|--3--------------0--------| 
G|--2--0--------------------|-----------------------2--| 
D|--------------------------|--4--------------0--0--0--| 
A|--3--3--3--3--3--3--3--3/-|--5--5--5--5--5-----------| 
E|--------------------------|--------------------------| 
                                                             
E|------------------------|-------------------------|--0----------------------| 
B|---0--------------------|-------------0--3--3--0--|-----------3----x--3p-0--| 
G|------------------------|-------------------------|-----------2----x--2-----| 
D|---2-----0-----------0--|----2-----0-----0-----0--|-----------0----0--0-----| 
A|------2-----------2-----|-------2-----------2-----|--3--2--0----------------| 
E|0-----------0--0--------|-0-----------0-----------|-------------------------| 
                                                               
E|---------0----0----x--0--|----0--0--0-------------|---------0----0----x--0--| 
B|--3-----------0----x--1--|----1--1--1--3----3p-0--|--3-----------0----x--1--| 
G|--------------0----x--0--|----0--0--0--2----2-----|--------------0----x--0--| 
D|-----3h4------2----x--2--|----2--2--2--0----0-----|-----3h4------2----x--2--| 
A|--------------2----x--3--|----3--3--3-------------|--------------2----x--3--| 
E|--------------0----------|------------------------|--------------0----------| 
                                                            
E|----0--0--0-------------|-------0---------------|-----------------0--0--0--| 
B|----1--1--1--3----3p-0--|--3---------0----------|--------------1--1--1--1--| 
G|----0--0--0--2----2-----|--2----2----0----2p-0--|--2p-0-----0--0--0--0--0--| 
D|----2--2--2--0----0-----|--0---------2----2-----|-----2--2--2--2--2--2--2--| 
A|----3--3--3-------------|-----------------------|--3--3--3--3--3--3--3--3--| 
E|------------------------|------------0----0-----|--------------------------| 
                                              
E|--3---2---0--0--x-------|--3-------3----3-----3--|----3--2----0---------| 
B|--3---3---3--3--x----x--|--0----x--1----1--x--3--|----3--3----3----3----| 
G|--2---2---2--2--x----x--|--0----x--0----0--x--2--|----2--2----2----2----| 
D|--0---0---0--0--x----x--|--2----x--2----2--x--0--|----0--0----0----0----| 
A|----------------x----x--|--2----x--3----3--x-----|----------------------| 
E|----------------x-------|--0---------------------|----------------------| 
                                                     
E|--7-------8-----8------8--|----8--7---------------|--3--3/-5--3----3-----3--| 
B|-------x--8-----8---x--8--|----8--8----8----10----|--0--------1----1--x--3--| 
G|--0----x--9-----9---x--7--|----7--7----7----7-----|--0--------0----0--x--2--| 
D|--0----x--10----10--x--0--|-0--0--0----0----0-----|--2--------2----2--x--0--| 
A|-------x--10----10--x-----|-----------------------|--2--------3----3--x-----| 
E|--3-------8-----8---------|-----------------------|--0----------------------| 
                                                   
E|-----3--2----0---------|--7-------8-----8------8--|-----8--7---------------| 
B|-----3--3----3----3----|-------x--8-----8---x--8--|-----8--8----8----10----| 
G|-----2--2----2----2----|--0----x--9-----9---x--7--|-----7--7----7----7-----| 
D|--0--0--0----0----0----|--0----x--10----10--x--0--|--0--0--0----0----0-----| 
A|-----------------------|-------x--10----10--x-----|------------------------| 
E|-----------------------|--3-------8-----8---------|------------------------| 
                                  
E|--8-----8--8----------------|---------------------------| 
B|--8-----8--8-----12-----12--|-----10--8-----------------| 
G|--9-----9--9-----9------9---|-----9---9-----------------| 
D|----------------------------|---------------------------| 
A|----------------------------|---------------------------| 
E|--8--8--8--8--8--8---8--8---|--8--8---8--8--8--8--8--8--| 
                                 
E|--0-----0-----3--5--7-----|--5-------------3h5p3------| 
B|-----3--------------------|-----3--3~------------7----| 
G|--------------------------|---------------------------| 
D|--------------------------|--0--0--0----0-------------| 
A|--------------3--3--3--3--|---------------------------| 
E|--0--0--0--0--------------|---------------------------| 
                                                    
E|-3----------------0--0--|----------------------|--3--3-----8-----8------2h3-| 
B|----3-----1----3--------|---3--3----3--3--3----|--0--0--x--8-----8---x------| 
G|-------4----------------|------2----2--2--2----|--0--0--x--9-----9---x------| 
D|---------------------0--|---0--0----0--0--0----|--2--2--x--10----10--x------| 
A|----------3----3--3-----|----------------------|--2-----x--10--------x------| 
E|-3--3--3----------------|----------------------|--0--------8----------------| 
                                                     
E|--2-----------------0h-2--|-3----------------------|-------0----------------| 
B|-----3--------------------|----3-----1p---0--------|-------0----------------| 
G|--------2~----------------|-------4----------0--0--|-------0----------------| 
D|--0--0--0--0--0--0--0--0--|------------------------|--2----2----------------| 
A|--------------------------|----------3----3--3-----|--2------------------2--| 
E|--------------------------|-3--3--3----------------|--0---------0--0--0--0--| 
                                                 
E|-----------------0--0--0--|--0-------2----2--2-----|-------0----0---------| 
B|--------------0--0--0--0--|--1----x--3----3--3p-0--|--3----3----0----x----| 
G|--------0--0--0--0--0--0--|--0----x--2----2--2-----|--2----2----0----x----| 
D|--2--2--2--2--2--2--2--2--|--2----x--0----0--0-----|--0----0----2----x----| 
A|--2--2--2--2--2--2--2--2--|--3----x----------------|------------2----x----| 
E|--0--0--0--0--0--0--0--0--|------------------------|------------0---------| 
                                             
E|--0---0---0--0---0---0--|--2---2---0--2--x-------|--3-------3----3-----3--| 
B|--1---1---3--1---3---1--|--3---3---3--3--x----x--|--0----x--1----1--x--3--| 
G|--0---0---0--0---0---0--|--2---2---2--2--x----x--|--0----x--0----0--x--2--| 
D|--2---2---2--2---2---2--|--0---0---0--0--x----x--|--2----x--2----2--x--0--| 
A|--3-------3--3---3---3--|----------------x----x--|--2----x--3----3--x-----| 
E|------------------------|----------------x-------|--0---------------------| 
                                                      
E|----3--2----0---------|--7-------8-----8------8--|-----8--7---------------| 
B|----3--3----3----3----|-------x--8-----8---x--8--|-----8--8----8----10----| 
G|----2--2----2----2----|--0----x--9-----9---x--7--|-----7--7----7----7-----| 
D|----0--0----0----0----|--0----x--10----10--x--0--|--0--0--0----0----0-----| 
A|----------------------|-------x--10----10--x-----|------------------------| 
E|----------------------|--3-------8-----8---------|------------------------| 
                                                     
E|--3--3/-5--3----3-----3--|-----3--2----0---------|--7-------8-----8------8--| 
B|--0--------1----1--x--3--|-----3--3----3----3----|-------x--8-----8---x--8--| 
G|--0--------0----0--x--2--|-----2--2----2----2----|--0----x--9-----9---x--7--| 
D|--2--------2----2--x--0--|--0--0--0----0----0----|--0----x--10----10--x--0--| 
A|--2--------3----3--x-----|-----------------------|-------x--10----10--x-----| 
E|--0----------------------|-----------------------|--3-------8-----8---------| 
                                         
E|-----8--7-------------|---------------------|--------------0--------| 
B|-----8--8----8--------|------8h---10~-------|-----------0-----------| 
G|-----7--7----7--------|------7--------------|--0-----0--------------| 
D|--0--0--0----0--------|------0--------------|--2--2-----------------| 
A|----------------------|---------------------|-----------------------| 
E|----------------------|---------------------|--0--------------------| 
                                                   
E|-----------------12----------|---------------------|--------5------------| 
B|---------12----------12------|--7------------------|-----5---------------| 
G|--12---------12--------------|---------------------|--5------------------| 
D|-----------------------------|-------5----7--------|---------------------| 
A|------7----------------------|---------------------|---------------------| 
E|-----------------------------|---------------------|---------------------| 

E|--0----------------|| 
B|--0----------------|| 
G|--0----------------|| 
D|--2----------------|| 
A|--2----------------|| 
E|--0----------------||
Colaboração e revisão:
  • Luis siqueira
3.593 exibições
    • ½ Tom
    • A
    • Bb
    • B
    • C
    • Db
    • D
    • Eb
    • E
    • F
    • F#
    • G
    • Ab
  • Adicionar à lista

    0 comentários

    Ver todos os comentários

    Conseguiu tocar?

    0 Tocaram 0 Ainda não

    Grave um vídeo tocando Living On A Prayer e nos envie!

    00:00 / 00:00
    outros vídeos desta música
    repetir qualidade Automático
    Outros vídeos desta música
    00:00 / 00:00
    Automático

    Cifra Club Pro

    Aproveite o Cifra Club com benefícios exclusivos e sem anúncios
    Cifra Club Pro
    Aproveite o Cifra Club com benefícios exclusivos e sem anúncios
    OK