Cifra Club

Os Caça Fantasmas (Ghostbusters)

Temas de Filmes

Cifra: Principal
exibições 116.365
Tom: E
E|------------|------------|
B|------------|------------|
G|------------|------------|
D|--9---7--2--|--9---7--2--|
A|--9---7--2--|--9---7--2--|
E|--7---5--0--|--7---5--0--|

E|---------------------------------|
B|---------------------------------|
G|------8---6----------------------|
D|--9-9---9---7----9-9-9-9-7-9-----|
A|---------------------------------|
E|---------------------------------|

E|---------------------------------|
B|---------------------------------|
G|------8---6----------------------|
D|--9-9---9---7----9-9-9-9-7-11-9--|
A|---------------------------------|
E|---------------------------------|

E|----------------------------------------|
B|----------------------------------------|
G|--7-----7-----7-----7-----7-------------|
D|-----9-----9-----9-----9-----9---7-8-9--|
A|----------------------------------------|
E|----------------------------------------|
Acordes para:
    Colaboração e revisão:
    • Marcos Paulo

    0 comentários

      mostrar mais comentários

      Conseguiu tocar?

      13tocaram0ainda não

      Grave um vídeo tocando Os Caça Fantasmas (Ghostbusters) e mande pra gente!

      00:00 / 00:00
      outros vídeos desta música
      repetirqualidadeautomática
      Outro vídeos desta música
        00:00 / 00:00
        automática
        OK