Cifra Club

Cabrobró

Tianastácia

Cifra: Guitarra
exibições 2.203
Tom: G
Introdução: G5  Bb5  A5  G5  Bb5  A5  G5
            A5  Bb5  G5  Bb5
            A5  Bb5  A5  F5

     P.M  .   . .    .         .

E|------------------------------------------|
B|------------------------------------------|
G|------------------------------------------|   (4x)
D|-5----8---7-----5----8-7-7-7--------------|
A|-5--x-8-x-7-x-x-5--x-8-7-7-7--------------|
E|-3--x-6-x-5-x-x-3--x-6-5-5-5-0------------|

   ↓  ↓ ↓ ↓ ↓ ↓ ↓ ↓  ↓ ↓ ↓ ↓ ↓ ↓

          P.M  .

E|------------------------------------------|
B|------------------------------------------|
G|------------------------------------------|   (3x)
D|-7-7-7-8---5---8--------------------------|
A|-7-7-7-8-x-5-x-8--------------------------|
E|-5-5-5-6-x-3-x-6--------------------------|

   ↓ ↓ ↓ ↓ ↓ ↓ ↓ ↓


E|------------------------------------------|
B|------------------------------------------|
G|------------------------------------------|
D|-7--8--7--3--5----------------------------|
A|-7--8--7--3--5----------------------------|
E|-5--6--5--1--3----------------------------|

   ↓  ↓  ↓  ↓  ↓


Primeira Parte:

        G5
Ouvi falar 

Loucura vem de berço
                                 (Riff 1)
Camarão bom é nascido em Cabrobó 
     G5
A bebida é coisa que vira cirrose

O cérebro derrete 

Quando alguém cheira loló, ló


Riff 1:


E|-----------------------------------------------------|
B|-----------------------------------------------------|
G|---3-5-b6r5p3p0-0------------------------------------|
D|-5----------------0----------------------------------|
A|-----------------------------------------------------|
E|-----------------------------------------------------|



Meu pai falava 

Pra eu andar sempre na linha

Só transar com camisinha 
                         (Riff 2)
Prás muié não engravidar
          G5
Lança perfume 

Sustentava meus neurônios

Eu descobri que Steinhäger com cerveja 

Faz pirar


Riff 2:


E|-----------------------------------------------------|
B|-----------------------------------------------------|
G|-----------------------------------------------------|
D|-----------------------------------------------------|
A|-----------------------------------------------------|
E|-\0-1p0--0-2p0--0------------------------------------|



Primeiro Refrão:

          C5
Só não vacilo, brow
                 G5
A natureza é implacável

( Bb5  A5  G5  Bb5  A5 )

           D5
Se o cara nasce mané
  C5          G5
Cresce mané, morre mané, mané
           D5
Se o cara nasce mané
  C5          G5
Cresce mané, morre mané, mané


Solo:


E|-----------------------------------------------------|
B|-18b20~---18-15--------------------------------------|
G|----------------15b17r15p15----17--15h16-------------|
D|----------------------------17-----------17~\--------|
A|-----------------------------------------------------|
E|-----------------------------------------------------|


E|-----------------------------------------------------|
B|-----------------------------------------------------|
G|-----------------------------------------------------|
D|-9br-------------------------------------------------|
A|-----------------------------------------------------|
E|------\---/------------------------------------------|


E|-----------------------------------------------------|
B|-14h15--14h15p14----14h15p14-15p14----14h15p14-17p14-|
G|-----------------15----------------15----------------|
D|-----------------------------------------------------|
A|-----------------------------------------------------|
E|-----------------------------------------------------|


E|-----------------------------------------------------|
B|-15p14----14-----------------------------------------|
G|-------15----15-14\12--14--14h15--14--12--14--14h15--|
D|-----------------------------------------------------|
A|-----------------------------------------------------|
E|-----------------------------------------------------|


E|-----------------------------------------------------|
B|---------14--15--15b17r15--14-15~--------------------|
G|-14--15----------------------------------------------|
D|-----------------------------------------------------|
A|-----------------------------------------------------|
E|-----------------------------------------------------|



Segunda Parte:


Ouvi falar 
                     (Riff 3)
Loucura vem de berço
                                 (Riff 4)
Camarão bom é nascido em Cabrobó
     G5
A bebida é coisa que vira cirrose

O cérebro derrete 

Quando alguém cheira loló

Riff 3:


E|-----------------------------------------------------|
B|-----------------------------------------------------|
G|-------3---------------------------------------------|
D|-/5--5---5-------------------------------------------|
A|-----------------------------------------------------|
E|-----------------------------------------------------|


Riff 4:


E|-----------------------------------------------------|
B|-----------------------------------------------------|
G|-5b--5b--5b7r----------------------------------------|
D|-----------------------------------------------------|
A|-----------------------------------------------------|
E|-----------------------------------------------------|



Meu pai falava 

Pra eu andar sempre na linha

Só transar com camisinha 
                         (Riff 2)
Prás muié não engravidar
          G5
Lança perfume 

Sustentava meus neurônios

Eu descobri que Steinhäger com cerveja 

Faz pirar


Segundo Refrão:

          C5
Só não vacilo, brow
                 G5
A natureza é implacável

( Bb5  A5  G5  Bb5  A5 )

           D5
Se o cara nasce mané
  C5          G5
Cresce mané, morre mané, mané
           D5
Se o cara nasce mané
  C5          G5
Cresce mané, morre mané, mané


Interlúdio: G5  Bb5  A5  G5  Bb5  A5  G5
            A5  Bb5  G5  Bb5
            A5  Bb5  A5  F5


Terceira Parte:


Ouvi falar 

Loucura vem de berço

Camarão bom é nascido em Cabrobó 

A bebida é coisa que vira cirrose

O cérebro derrete 

Quando alguém cheira loló, ló


Meu pai falava 

Pra eu andar sempre na linha

Só transar com camisinha 
                         (Riff 2)
Prás muié não engravidar
          G5
Lança perfume 

Sustentava meus neurônios

Eu descobri que Steinhäger com cerveja 

Faz pirar


Refrão Final:

          C5
Só não vacilo, brow
                 G5
A natureza é implacável

( Bb5  A5  G5  Bb5  A5 )

           D5
Se o cara nasce mané
  C5          G5
Cresce mané, morre mané, mané
           D5
Se o cara nasce mané
  C5          G5
Cresce mané, morre mané, mané
           D5
Se o cara nasce mané
  C5          G5
Cresce mané, morre mané, mané
           D5
Se o cara nasce mané
      C5          G5
Ele cresce mané, morre mané, mané
Acordes para:
    Colaboração e revisão:
    • Vinícius Dias

    0 comentários

      mostrar mais comentários

      Conseguiu tocar?

      0tocaram0ainda não

      Grave um vídeo tocando Cabrobró e mande pra gente!

      00:00 / 00:00
      outros vídeos desta música
      repetirqualidadeautomática
      Outro vídeos desta música
        00:00 / 00:00
        automática
        Capítulos
        • Tocando a música
        • Apresentação / Equipamentos
        • Configuração do Pedal
        • Acordes da Introdução
        • Tocando Introdução
        • Ensinando Introdução
        • Dicas Primeira Parte
        • Tocando Primeira Parte
        • Ensinando Riff 1
        • Ensinando Riff 2
        • Acordes do Refrão
        • Tocando Refrão
        • Ensinando Refrão
        • Dicas Solo
        • Tocando Solo
        • Solo - Parte 1 de 3
        • Solo - Parte 2 de 3
        • Solo - Parte 3 de 3
        • Dicas Repetição
        • Tocando Segunda Parte - Final
        • Ensinado Riff 3
        • Ensinado Riff 4
        • Encerramento
        • Ficha Técnica
        OK