Cifra Club

Oracle of Ages - Sadness

Zelda

Cifra: Principal (violão e guitarra)
Selo Cifra Club: esta cifra foi revisada para atender aos critérios oficiais da nossa Equipe de Qualidade.
tom: D
 (violão 1)
E |------------------------------------------------------|
B |------------1-------------------------------------1---|
G |---------------------------3----3---------------------|
D |-------3---------3----1----------------------3--------|
A |------------------------------------------------------|
E |------------------------------------------------------|

E |---1--------------------------------------------------|
B |--------4--------------4----4--------2----4--2--1-----|
G |-------------0----1-----------------------------------|
D |------------------------------------------------------|
A |------------------------------------------------------|
E |------------------------------------------------------|

E |----------------------------3----1----0---------------|
B |-------------1----1-----------------------------------|
G |---3----1--------------3------------------------------|
D |------------------------------------------------------|
A |------------------------------------------------------|
E |------------------------------------------------------|

E |---1-------------------------------------6--4--3--1---|
B |--------1--------------4----4-------------------------|
G |-------------1----3-----------------------------------|
D |------------------------------------------------------|
A |------------------------------------------------------|
E |------------------------------------------------------|

E |--------------1----1----------------------------------|
B |---4--2--1-------------------4--------2---------------|
G |------------------------------------------------------|
D |------------------------3-----------------------------|
A |------------------------------------------------------|
E |------------------------------------------------------|

E |------------------------------------------------------|
B |-----2--4--2--1---------------------------------------|
G |-----------------------3------------------------------|
D |------------------------------------------------------|
A |------------------------------------------------------|
E |------------------------------------------------------|

 (violão 2)
E |------------------------------------------------------|
B |------------------------------------------------------|
G |-------------1--------------0----3--------------------|
D |------------------------------------------------------|
A |---1----4---------4----3--------------3----1----4-----|
E |------------------------------------------------------|

E |------------------------------------------------------|
B |------------------------------------------------------|
G |---1--------------0----------------------1--0---------|
D |-----------------------3-------------------------1----|
A |--------4----3------------------1--3--4---------------|
E |------------------------------------------------------|

E |------------------------------------------------------|
B |------------------------------------------------------|
G |---1----0---------------------------------------------|
D |-------------3----1-----------------------------------|
A |-----------------------4----------------3--4--3--4----|
E |------------------------------------------------------|

E |------------------------------------------------------|
B |--------1--------------1------------------------------|
G |------------------1-------------------0----3----------|
D |------------------------------------------------------|
A |---3---------4--------------4----3--------------3-----|
E |------------------------------------------------------|

E |------------------------------------------------------|
B |-------------1----------------------------------------|
G |--------1-------------------3----0--------------------|
D |------------------------------------------------------|
A |---4--------------4----3------------------1----3------|
E |------------------------------------------------------|

E |------------------------------------------------------|
B |------------------------------------------------------|
G |------------------0----1----3--------------0----1-----|
D |--------1----3-------------------1----3---------------|
A |---4--------------------------------------------------|
E |------------------------------------------------------|

E |------------------------------------------------------|
B |--------1----2----4-----------------------------------|
G |---3--------------------------------------------------|
D |------------------------------------------------------|
A |------------------------------------------------------|
E |------------------------------------------------------|
Outros vídeos desta música
504 exibições
    • ½ Tom
    • A
    • Bb
    • B
    • C
    • Db
    • D
    • Eb
    • E
    • F
    • F#
    • G
    • Ab
  • Adicionar à lista

Afinação da cifra

Afinador online

    0 comentários

    Ver todos os comentários

    Entre para o Cifra Club PRO

    Tenha acesso a benefícios exclusivos no App e no Site

    • Chega de anúncios

    • Mais recursos no app do Afinador

    • Atendimento Prioritário

    • Aumente seu limite de lista

    • Ajude a produzir mais conteúdo

    Cifra Club Pro

    Aproveite o Cifra Club com benefícios exclusivos e sem anúncios
    Cifra Club Pro
    Aproveite o Cifra Club com benefícios exclusivos e sem anúncios
    OK