Cifra Club

Aprenda

Stiff Upper Lip

AC/DC

Cifra: Versão 3 (violão e guitarra)
tom: G
Angus   
E|-----5----x-5-----------------------------------------------------|              
B|-----5----x-5---------7--5----------------------------------------|
G|--7b---7b-----7-5---x-7--5----------------------------------------|              
D|------------------X-----------------------------------------------|
A|------------------------------------------------------------------|              
E|------------------------------------------------------------------|
ELE CANTA ISSO ENQUANTO VOCÊ FAZ ESTE RIFF

Well I was out on a drive
On a bit of a trip
Lookin' for thrills
To get me some kicks
Now I warn you ladies
I shoot from the hip
I was born with a stiff

Stiff upper lip
 DEPOIS DESTA PARTE O RIFF MUDA PARA...

E|----x-5-5-----5-5-------------------------------------------|              
B|----x-5-5-----5-5------7--5---------------------------------|
G|-----------7-----------7--5---------------------------------|              
D|------------------7~----------------------------------------|
A|------------------------------------------------------------|              
E|------------------------------------------------------------|
Composição de Angus Young / Malcolm Young
Colaboração e revisão:
  • mateus magalhaes
2.795 exibições
  • Simplificar cifra
    • ½ Tom
    • A
    • Bb
    • B
    • C
    • Db
    • D
    • Eb
    • E
    • F
    • F#
    • G
    • Ab
  • Adicionar à lista

    0 comentários

    Ver todos os comentários

    Conseguiu tocar?

    0 Tocaram 0 Ainda não

    Grave um vídeo tocando Stiff Upper Lip e nos envie!

    00:00 / 00:00
    Outros vídeos desta música
    Repetir Qualidade Automático
    Outros vídeos desta música
    00:00 / 00:00
    Automático

    Cifra Club Pro

    Aproveite o Cifra Club com benefícios exclusivos e sem anúncios
    Cifra Club Pro
    Aproveite o Cifra Club com benefícios exclusivos e sem anúncios
    OK