Cifra Club

Aprenda

Rise To The Sun

Alabama Shakes

Tab de baixo: Principal
INTRO                    Verse 1
G|---------------------|-------------------------------------------||
D|---5-5-5-5--5-5-5-5--|-55----9-----------------------------------||
A|---------------------|-----9----9--5--5--00---0-55---------------||
E|---------------------|-------------------------------------------||

Verse 1 with fill
G|-----------------------------------------------------------------||
D|--55------9--------------------7-----7---------------------------||
A|--------9----9--5--5-----7-8-9---7-9----5------------------------||
E|----------------------7------------------------------------------||

"It blows away..."
G|-----------------------------------------------------------------||
D|-----55----5-5555--------------------55--------------------------||
A|--5------5-----------55---55---77--5-----------------------------||
E|-------------------7----7----7-----------------------------------||

"I wake up, rise to the sun..."
G|-----------------------------------------------------------------||
D|----5-5-55---5-5-55----------------------------------------------||
A|----------------------7-7-77---7-7-77----------------------------||
E|-----------------------------------------------------------------||

"Come back home..."
G|-----------------------------------------------------------------||
D|----5--5------5--5--------4---4-------5---5----------------------||
A|--5------7--5-----------5-------2---5--------7-------------------||
E|--------------------7--------------------------------------------||
Composição de Alabama Shakes
Colaboração e revisão:
  • Vanna
514 exibições

0 comentários

Ver todos os comentários

Conseguiu tocar?

0 Tocaram 0 Ainda não

Grave um vídeo tocando Rise To The Sun e nos envie!

00:00 / 00:00
Outros vídeos desta música
Repetir Qualidade Automático
Outros vídeos desta música
00:00 / 00:00
Automático

Cifra Club Pro

Aproveite o Cifra Club com benefícios exclusivos e sem anúncios
Cifra Club Pro
Aproveite o Cifra Club com benefícios exclusivos e sem anúncios
OK