Cifra Club

Aprenda

Everything's Magic

Angels & Airwaves

Cifra: Versão 4 (violão e guitarra)
Tom: C
Everything's Magic

Intro:

e|-----------------------------------|
B|-8-------6-------5-------6-----6---|
G|---5---5---5---5---5---5---5--5----|
D|-----5-------5-------5-------5-----|
A|-----------------------------------|
E|-----------------------------------|

Verse:

e|------------------------------------|
B|-8-----8-6-----6--5--------6----6---|
G|---5-------5--------5---5---5--5----|
D|-----5-------5--------5-------5-----|
A|------------------------------------|
E|------------------------------------|

Chorus:

e:--8--x8--x8-x8--8-8-|        e:--8---|
B:--8--x8--x8-x8--6-6-|        B:--5---|
G:--5--x5--x5-x5--5-5-| (x16)  G:--5---| (Let Ring)
D:--------------------|        D:------|
A:--------------------|        A:------|
E:--------------------|        E:------|

Verse:

e|------------------------------------|
B|-8-----8-6-----6--5--------6----6---|
G|---5-------5--------5---5---5--5----|
D|-----5-------5--------5-------5-----|
A|------------------------------------|
E|------------------------------------|


Chorus:

e:--8--x8--x8-x8--8-8-|        e:--8---|
B:--8--x8--x8-x8--6-6-|        B:--5---|
G:--5--x5--x5-x5--5-5-| (x16)  G:--5---| (Let Ring)
D:--------------------|        D:------|
A:--------------------|        A:------|
E:--------------------|        E:------|

Bridge: 
Mainly keyboard and bass..
(Optional-Repeat Various Times)

e:--8---|
B:--5---|
G:--5---|
D:------|
A:------|
E:------|

Chorus:

e:--8--x8--x8-x8--8-8-|        e:--8---|
B:--8--x8--x8-x8--6-6-|        B:--5---|
G:--5--x5--x5-x5--5-5-| (x16)  G:--5---| (Let Ring)
D:--------------------|        D:------|
A:--------------------|        A:------|
E:--------------------|        E:------|
Composição de Tom DeLonge
1.677 exibições
    • ½ Tom
    • A
    • Bb
    • B
    • C
    • Db
    • D
    • Eb
    • E
    • F
    • F#
    • G
    • Ab
  • Adicionar à lista

    0 comentários

    Mostrar mais comentários

    Conseguiu tocar?

    0 Tocaram 0 Ainda não

    Grave um vídeo tocando Everything's Magic e mande pra gente!

    00:00 / 00:00
    outros vídeos desta música
    repetir qualidade Automático
    Outros vídeos desta música
    00:00 / 00:00
    Automático

    Cifra Club Pro

    Aproveite o Cifra Club com benefícios exclusivos e sem anúncios
    7 dias grátis
    Cifra Club Pro
    Aproveite o Cifra Club com benefícios exclusivos e sem anúncios
    7 dias grátis
    OK