Cifra Club

Everything's Magic

Angels & Airwaves

Cifra: Versão 2 (violão e guitarra)
Tom: C
Intro/Verse (Clean):
e:--3-3--1-1-1-0-0---1--1--1(h3)-------------|
B:---1-1--1-1---1-1----1--1------------------|
G:--------------------------------- (play 10-|x)
D:-------------------------------------------|
A:-------------------------------------------|
E:-------------------------------------------|

Chorus (Guitar 1, some distortion):
e:--8--x8--x8-8--8--|
B:--8--x8--x8-8--6--|
G:------------------| (play 16x)
D:------------------|
A:------------------|
E:------------------|
Guitar 2:
e:-------------------------------------|
B:-------------------------------------|
G:--5555555555555555-------------------|
D:--5555555555555555-7777777777777777--| (play 2x)
A:--3333333333333333-7777777777777777--|
E:-------------------5555555555555555--|

e:-------------------------------------|
B:-------------------------------------|
G:-------------------------------------|
D:--5xx5xx555555555-3xx3xx33333333333--|
A:--5xx5xx555555555-3xx3xx33333333333--|
E:--3xx3xx333333333-1xx1xx11111111111--|

Bridge (Guitar 1):
e:---------------------|
B:---------------------|
G:--5xx5xx5---5xx5xx5--|(play 2x)
D:--5xx5xx5---5xx5xx5--|
A:--3xx3xx3---3xx3xx3--|
E:---------------------|

Guitar 2 (Optional Solo):
e:-------------------------------------------------|
B:-------------------------------------------------|
G:-------------------------------------------------|
D:---------2h3p2---0----2h3p2---0----2h3p2---0-----|
A:---------------3---3--------3---3------3---3-----|
E:-------------------------------------------------|

i got the optional solo from an acoustic performance they did... it seems to fit pretty well.

This song is going to be released on AVA's new album I-Empire, coming in October.
exibições 3.299
Acordes para:
    Composição: Tom DeLonge

    0 comentários

    mostrar mais comentários

    Conseguiu tocar?

    0 tocaram 0 ainda não

    Grave um vídeo tocando Everything's Magic e mande pra gente!

    00:00 / 00:00
    outros vídeos desta música
    repetir qualidade Automático
    Outros vídeos desta música
    00:00 / 00:00
    Automático
    OK