Cifra Club

Young London

Angels & Airwaves

Cifra: Principal (violão e guitarra)
Tom: A
. = palm mute
~ = hold note(s)
x(n) = number of times played
x = mute

0:00
x2
E|--------------------------|
B|--------------------------|
G|----------------------4~--|
D|--22~-22~--22~-22~--x-2~--|
A|--00~-00~--00~-00~--x-----|
E|--------------------------|
    ..  ..   ..  ..     .

x8
  Rythm Guitar
E|-------------------------------------------------------------------|
B|-------------------------------------------------------------------|
G|-------------------------------------------------------------------|
D|--22~-22~--22~-22~-------------------------------------------------|
A|--00~-00~--00~-00~-------------------------------------------------|
E|-------------------------------------------------------------------|
 |                                                                   |
 |Lead Guitar                                                       |
E|--0-12p0-10p0-9p0-7p0-9p0-7p0-5p0-4p0-5p0-7p0-5p0-9p0-7p0-9p0-7p0--|
B|-------------------------------------------------------------------|
G|-------------------------------------------------------------------|
D|-------------------------------------------------------------------|
A|-------------------------------------------------------------------|
E|-------------------------------------------------------------------|
 |                                                                   |
 |Rythm Guitar                                                       |
E|-------------------------------------------------------------------|
B|-------------------------------------------------------------------|
G|-------------------------------------------------------------------|
D|--22~-22~--22~-22~-------------------------------------------------|
A|--00~-00~--00~-00~-------------------------------------------------|
E|-------------------------------------------------------------------|
 |                                                                   |
 |Lead Guitar                                                        |
E|--0-12p0-10p0-9p0-7p0-9p0-7p0-5p0-4p0-5p0-7p0-5p0-9p0-7p0-4p0-5p0--|
B|-------------------------------------------------------------------|
G|-------------------------------------------------------------------|
D|-------------------------------------------------------------------|
A|-------------------------------------------------------------------|
E|-------------------------------------------------------------------|

0:41

x3 (Some distorion with delay)
E|--5~--4~-5~--7~--|
B|--5~--5~-5~--5~--|
G|-----------------|
D|-----------------|
A|-----------------|
E|-----------------|

1:02
x2
E|--------------------|
B|--------------------|
G|--------------------|
D|--22~-22~--22~-22~--|
A|--00~-00~--00~-00~--|
E|--------------------|
    ..  ..   ..  ..

1:08
x3 (Some distorion with delay)
E|--5~--4~-5~--7~--|
B|--5~--5~-5~--5~--|
G|-----------------|
D|-----------------|
A|-----------------|
E|-----------------|

1:29
x4
E|-------------------------------|
B|-------------------------------|
G|-------------------------------|
D|------2~-7~--2~-7~--2~-4~--2~--|
A|--4~--0~-5~--0~-4~--0~-2~--0~--|
E|--2~---------------------------|

1:56-2:03 (No guitar)
2:03
x2
  Rythm Guitar
E|-------------------------------------------------------------------|
B|-------------------------------------------------------------------|
G|-------------------------------------------------------------------|
D|--22~-22~--22~-22~-------------------------------------------------|
A|--00~-00~--00~-00~-------------------------------------------------|
E|-------------------------------------------------------------------|
 |                                                                   |
 |Lead Guitar                                                        |
 |                                                                   |
E|--0-12p0-10p0-9p0-7p0-9p0-7p0-5p0-4p0-5p0-7p0-5p0-9p0-7p0-9p0-7p0--|
B|-------------------------------------------------------------------|
G|-------------------------------------------------------------------|
D|-------------------------------------------------------------------|
A|-------------------------------------------------------------------|
E|-------------------------------------------------------------------|
 |                                                                   |
 |Rythm Guitar                                                       |
 |                                                                   |
E|-------------------------------------------------------------------|
B|-------------------------------------------------------------------|
G|-------------------------------------------------------------------|
D|--22~-22~--22~-22~-------------------------------------------------|
A|--00~-00~--00~-00~-------------------------------------------------|
E|-------------------------------------------------------------------|
 |                                                                   |
 |Lead Guitar                                                        |
 |                                                                   |
E|--0-12p0-10p0-9p0-7p0-9p0-7p0-5p0-4p0-5p0-7p0-5p0-9p0-7p0-4p0-5p0--|
B|-------------------------------------------------------------------|
G|-------------------------------------------------------------------|
D|-------------------------------------------------------------------|
A|-------------------------------------------------------------------|
E|-------------------------------------------------------------------|

2:17-2:45 (No guitar)

2:45

x1 (Strum chords)
E|------------------|
B|------------------|
G|------------------|
D|--2~--7~--7~--4~--|
A|--0~--5~--4~--2~--|
E|------------------|

3:12
x4
Rythm
E|------------------|
B|------------------|
G|------------------|
D|--2~--4~--7~--7~--|
A|--0~--2~--4~--5~--|
E|------------------|
 |                  |
 |Lead Guitar       |
 |                  |
E|------------------|
B|------------------|
G|--2-2-2-2-2-2-2---|
D|------------------|
A|------------------|
E|------------------|

3:40
x1
E|---------------------|
B|---------------------|
G|---------------------|
D|-2~---------------2--|
A|-0~-(pick slide)--0--|
E|---------------------|
exibições 813
Acordes para:
    Composição: Tom DeLonge Colaboração e revisão:
    • Lizandra Leal

    0 comentários

    mostrar mais comentários

    Conseguiu tocar?

    0 tocaram 0 ainda não

    Grave um vídeo tocando Young London e mande pra gente!

    00:00 / 00:00
    outros vídeos desta música
    repetir qualidade Automático
    Outros vídeos desta música
    00:00 / 00:00
    Automático
    OK