Cifra Club

We Dont Need To Whisper

Angels & Airwaves

Tab de baixo: Principal
1. valkyrie missle

Bass Line Start 1:30
G|-9-9-9-9-8888-11-8—-8-9-8-9—9-----|
D|-----------------------------9-8--|X7
A|----------------------------------|
E|----------------------------------|


2:15,
G|-----------------------------|
D|-----------------------------|
A|-7(x40)-5(x40)-2(x40)-0(x40)-|
E|-----------------------------|

Every One, Every One Will Listen…
G|-----------------------------------------------------------------------|
D|-----------------------------------------------------------------------|
A|-0~------------------------0~----------------------0~------------------|x3
E|-----------------------------------------------------------------------|

3:05, “You Might Hear The Pitch Change But This Is How You Do It”
G|----------------------------|
D|----------------------------|
A|-0x80/5555555555577777777777|x2
E|----------------------------|

3:31,
G|---------------------|
D|---------------------|
A|-9x40-5x40-0x40-2x40-|
E|---------------------|

3:56,
G|---------------------|
D|---------------------|
A|-0x40-5x40-2x40-0x40-|
E|---------------------|

4:22, I Got A Whole Hell A lot To Say, Even If It Hurts Some Times
G|-----------------------------------------------------------------------|
D|-----------------------------------------------------------------------|
A|-0~--------------------------0~------------------------0~--------------|x3
E|-----------------------------------------------------------------------|

4:47
G|----------------------------|
D|----------------------------|
A|-0x80/5555555555577777777777|x2
E|----------------------------|

5:13
G|---------------------|
D|---------------------|
A|-9x40-5x40-0x40-2x40-|
E|---------------------|

5:38
G|-----------------------------------------------------------------------|
D|-----------------------------------------------------------------------|
A|-0~------------------------0~---------------------------0~-------------|
E|-----------------------------------------------------------------------|

5:57
G|--------------------------|
D|--------------------------|
A|-7x40-5x40-0x40-2x40-0x50-|
E|--------------------------|



*

Tuning:Standard

Intro/Chorus- "I'll be your distraction..."
Come in at 1:09
G|---------------------------------------------------------------------------|
D|---------------------------------------------------------------------------|
A|--33333332--555555/7/8--33333332--555555/8/7--33333332--555555/8/7---------|
E|---------------------------------------------------------------------------|

G|---------------------------------------------------------------------------|
D|---------------------------------------------------------------------------|
A|33333332--555555/7/3-------------------------------------------------------|
E|---------------------------------------------------------------------------|

Verse-1:30 "There's a field nearby..." (Listen for timing)
G|---------------------------------------------------------------------------|
D|---------------------------------------------------------------------------|
A|--3~--3~-------------------------------------------------------------------|
E|---------------------------------------------------------------------------|

Verse (Continued)-1:51 "The planes felw in..."
G|---------------------------------------------------------------------------|
D|---------------------------------------------------------------------------|
A|--3333333---5555555/7--333333---88888877-----------------------------------|
E|---------3-------------------3---------------------------------------------|

Play Intro/Chorus again-2:12 "I'll be your distraction..."

Play Verse again-2:34 "The friendship we made..."

Play Verse (Continued)- 2:55 "And the boys went down..."

Play Intro/Chorus-3:16 "I'll be your distraction"

Bridge-3:38
G|---------------------------------------------------------------------------|
D|---------------------------------------------------------------------------|
A|-3~--5~--7~--8/5~--5-3~--5~--7~--7-8~--------------------------------------|
E|----3---3--------------3---3-----------------------------------------------|

Play Intro/Chorus again-3:59 (x2) "I'll be your distraction"


3.do it for me now


  g|-----------------------------|| verse/intro
  d|---------------0(x20)--------||
  a|-0(x20)---------------0(x20)-||
  e|--------2(x20)---------------||

  g|-----------------------------|| chorus
  d|--------0(x20)---------------||
  a|---------------0(x20)--------||
  e|-2(x20)---------------4(x20)-||

  g|----------------------|| interlude
  d|----------------------||
  a|----------------------||
  e|-5(x20)-7(x4)-10(x20)-||

   you'll have to time the note's to play it right.
   it's really not that hard. really...


* adventure


 Intro
 4/4
  Gtr I
|-----|
|-----|
|-----|
|-----|


   Pre-Verse
                                                                          2x
||-----------------|----------------|----------------|------------------||
||o----------------|----------------|----------------|-----------------o||
||o----------------|----------------|-2--2-2-2-2-2-2-|-----------------o||
||--4--4-4-4-4-4-4-|-0--0-0-0-0-0-0-|----------------|-2--2-2-2-2-2-2---||

|-----------------|----------------|----------------|------------------|
|-----------------|----------------|----------------|------------------|
|-----------------|----------------|-2--2-2-2-2-4\--|-1-1-1-1-1-1-1-1--|
|--4--4-4-4-4-4-4-|-0--0-0-0-0-0-0-|----------------|------------------|

|-----------------|----------------|----------------|-------------------|
|-----------------|----------------|----------------|-------------------|
|-----------------|----------------|-2--2-2-2-2-2-2-|-------------------|
|--4--4-4-4-4-4-4-|-0--0-0-0-0-0-0-|----------------|-2--2-2-2-2-2-2----|


 Verse
|----------|----------|----------|-----------------|
|----------|----------|----------|-----------------|
|----------|----------|-2--------|-4-4-4-4-4-4-4-4-|
|-4--------|-0--------|----------|-----------------|


|----------|----------|---------|------|
|----------|----------|---------|------|
|----------|----------|-2-------|------|
|-4--------|-0--------|---------|-2----|


|----------|----------|---------|-------|
|----------|----------|---------|-------|
|----------|----------|-2-----4S|==1----|
|-4--------|-0--------|---------|-------|


|----------|----------|----------|------|
|----------|----------|----------|------|
|----------|----------|-2--------|------|
|-4--------|-0--------|----------|-2----|


 Chorus
  Slower Q=130
|----------|------------|------------|--------|
|----------|------------|------------|--------|
|-2--------|-(2)--------|-(2)--------|-(2)----|
|----------|------------|------------|--------|


|-----|
|-----|
|-----|
|-----|


   Pre-Verse
||-----------------|----------------|----------------|----------------||
||o----------------|----------------|----------------|---------------o||
||o----------------|----------------|-2--2-2-2-2-2-2-|---------------o||
||--4--4-4-4-4-4-4-|-0--0-0-0-0-0-0-|----------------|-2--2-2-2-2-2-2-||


 Verse 2
|----------|----------|----------|-----------------|
|----------|----------|----------|-----------------|
|----------|----------|-2--------|-4-4-4-4-4-4-4-4-|
|-4--------|-0--------|----------|-----------------|


|----------|----------|---------|------|
|----------|----------|---------|------|
|----------|----------|-2-------|------|
|-4--------|-0--------|---------|-2----|


|----------|----------|---------|-------|
|----------|----------|---------|-------|
|----------|----------|-2-----4S|==1----|
|-4--------|-0--------|---------|-------|


|----------|----------|----------|------|
|----------|----------|----------|------|
|----------|----------|-2--------|------|
|-4--------|-0--------|----------|-2----|


 Chorus
  Slower Q=130
|----------|------------|------------|--------|
|----------|------------|------------|--------|
|-2--------|-(2)--------|-(2)--------|-(2)----|
|----------|------------|------------|--------|


|-----|
|-----|
|-----|
|-----|


||-----------|----------|----------|-------||
||o----------|----------|----------|------o||
||o-2--------|-4--------|-6--------|-4----o||
||-----------|----------|----------|-------||


   Interlude
                                             4x
||------------|----------|----------|--------||
||o-----------|----------|----------|-------o||
||o--2--------|-4--------|-6--------|--4----o||
||------------|----------|----------|--------||

   Outro
||--------------|-------------|-------------|-------------||
||o-------------|-------------|-------------|------------o||
||o-2--2--2--2--|-1--1--1--1--|-------------|------------o||
||--------------|-------------|-4--4--4--4--|-2--2--2--2--||


|-----------|-------------|-------------|---------|
|-----------|-------------|-------------|---------|
|--2--------|--(2)--------|--(2)--------|--(2)----|
|-----------|-------------|-------------|---------|

----------------------------------------------------------------------------
5.a littles enough

Intro
G|--------------------------------------------------------------------------
D|--------------------------------------------------------------------------
A|-----------------(x2)-----------------------------------------------------
E|-2~--5~--0~--5~-----------------------------------------------------------

Verse-0:28 "When all is said and done..."
G|--------------------------------------------------------------------------
D|--------------------------------------------------------------------------
A|-----------------(x2)-----------------------------------------------------
E|-2~--5~--0~--5~-----------------------------------------------------------

Prechorus-0:56 "To say i..."
G|--------------------------------------------------------------------------
D|--------------------------------------------------------------------------
A|-------------------------------------------------------444444444444-------
E|--222222222222--000000000000--222222222222-00000000000--------------------

G|--------------------------------------------------------------------------
D|--------------------------------------------------------------------------
A|222222222222 444444444444 22222222222-------------------------------------
E|--------------------------------------------------------------------------

Chorus-1:24
G|--------------------------------------------------------------------------
D|--------------------------------------------------------------------------
A|--0~----------------------------------------------------------------------
E|--------------------------------------------------------------------------

Verse 2-1:38 "Green trees were the first sign..."
G|--------------------------------------------------------------------------
D|--------------------------------------------------------------------------
A|--------------------------------------------------------------------------
E|--222222222222--555555555555--000000000000--55555555555-------------------

Prechorus-2:05 "To say i..." (straight eighth note pattern)
G|--------------------------------------------------------------------------
D|--------------------------------------------------------------------------
A|-------------------------------------------------------444444444444-------
E|--222222222222--000000000000--222222222222-00000000000--------------------

G|--------------------------------------------------------------------------
D|--------------------------------------------------------------------------
A|222222222222 444444444444 22222222222-------------------------------------
E|--------------------------------------------------------------------------

Chorus-2:33 So you can hear im..." (Let all notes ring out!)
G|--------------------------------------------------------------------------
D|--------------------------------------------------------------------------
A|--------------------------------------------------------------------------
E|--5--5--5-4--4--4-2--2--2-0--0--0-5---------------------------------------

Bridge-3:01 "A little's enough..." (Let all notes ring out!)
G|--------------------------------------------------------------------------
D|--------------------------------------------------------------------------
A|----2--4--2--4--5--4--2---------------------------------------------------
E|-5------------------------------------------------------------------------

Chorus/Outro-3:29 "Im sorry..."
G|--------------------------------------------------------------------------
D|-------------------------------------------------------------------------
A|-----------------------------------------------------------55555555(x4---|
E|--5555555555555555--4444444444444444--2222222222222222--00000000----------

End On (Let it ring freely...)
G|--------------------------------------------------------------------------
D|--------------------------------------------------------------------------
A|--0~----------------------------------------------------------------------
E|--------------------------------------------------------------------------
--------------------------------------------------------------------------------

* war

Tuning:D A D G

Intro (Listen for strumming)
G|---------------------------------------------------------------------------|
D|---------------------------------------------------------------------------|
A|---------------------------------------------------------------------------|
E|--000000000000-555555555555-000000000000-555555555555-444444444444---------|

G|---------------------------------------------------------------------------|
D|---------------------------------------------------------------------------|
A|---------------------------------------------------------------------------|
E|222222222222---------------------------------------------------------------|

Intro (Continued)-0:31
G|---------------------------------------------------------------------------|
D|---------------------------------------------------------------------------|
A|------------0000-----------0000-2222-2222-----------0000-----(x2)----------|
E|--0000-0000------0000-0000----------------5555-0000------4-0~--------------|

Verse:0:51 "The ocean..."
G|---------------------------------------------------------------------------|
D|---------------------------------------------------------------------------|
A|----------------------------------------------------(x2)-------------------|
E|--000000000000-444444444444-555555555555555555555555-----------------------|

Prechorus-1:11 "Believe... you want this...)
G|---------------------------------------------------------------------------|
D|---------------------------------------------------------------------------|
A|---------------000000000000-222222222222-000000000000-(x2)-----------------|
E|--000000000000-------------------------------------------------------------|

Chorus-1:31 "Why won't you tell me that..."
G|---------------------------------------------------------------------------|
D|---------------------------------------------------------------------------|
A|----------------------------------------------------(x2)-------------------|
E|-000000000000000000000000-777777777777-222222222222------------------------|

Play Intro (Continued) again-1:51

Play Verse again at-2:01 "And the houses laid out like targets...)

Play Prechorus again- 2:22 "Believe... you want this...)

Play Chorus again-2:41 "Why won't you tell me that..."

Come back in at 3:12 playing the prechorus twice "Believe..."

Play Chorus-3:41 "Why won't you tell me that..." (x2)

Play Intro (Continued)-4:23 (x2)


* gift

Intro                                                                     x2
G|--------------------------------------------------------------------------|
D|--------------------------------------------------------------------------|
A|--------------------------------------------------------------------------|
E|--------------------------------------------------------------------------|

Verse   "There's a strangest excitment today...."                         x4
G|--------------------------------------------------------------------------|
D|-----9>----------------------9>-------------------------------------------|
A|-6>------6h7>------2h4---6>------6h7>------2h4----------------------------|
E|--------------------------------------------------------------------------|

Pre-chorus   "And suddenly...."                                           x2
G|----------------------------------------------------------------------------|
D|-------7-9>-------------------7-9>------------------------------------------|
A|-2>-----------------7---2>-----------------4--------------------------------|
E|----------------------------------------------------------------------------|

Chorus    "And Now...."                                                   x2
G|--------------------------------------------------------------------------|
D|--------------------------------------------------------------------------|
A|-2-2-2-2-2-2-2-2--4-4-4-4-4-4-4-4--2-2-2-2-2-2-2-2--4-4-4-4-4-4-4-4-------|
E|--------------------------------------------------------------------------|

Pre-verse     (No singing)                                                x1
G|--------------------------------------------------------------------------|
D|-----9>------------------------9>-----------------------------------------|
A|-6>------7-9>--------2h4---6>------7-9>------2h4--------------------------|
E|--------------------------------------------------------------------------|

Verse    "If you ask I will do what you say...."                          x4
G|----------------------------------------------------------------------------|
D|-----9>----------------------9>---------------------------------------------|
A|-6>------6h7>------2h4---6>------6h7>------2h4------------------------------|
E|----------------------------------------------------------------------------|

Pre-chorus   "And suddenly...."                                           x2
G|----------------------------------------------------------------------------|
D|-------7-9>-------------------7-9>------------------------------------------|
A|-2>-----------------7---2>-----------------4--------------------------------|
E|----------------------------------------------------------------------------|

Chorus    "And Now...."                                                   x4
G|--------------------------------------------------------------------------|
D|--------------------------------------------------------------------------|
A|-2-2-2-2-2-2-2-2--4-4-4-4-4-4-4-4--2-2-2-2-2-2-2-2--4-4-4-4-4-4-4-4-------|
E|--------------------------------------------------------------------------|

Bridge   "Oh, Oh-oh, oh-oh, oh-oh, yah...."                               x2
G|--------------------------------------------------------------------------|
D|--------------------------------------------------------------------------|
A|-6>--7>-------2>--4>---------6>--7>-------2>--4>--------------------------|
E|--------------------------------------------------------------------------|

Chorus    "And Now...."                                                   x4
G|--------------------------------------------------------------------------|
D|--------------------------------------------------------------------------|
A|-2-2-2-2-2-2-2-2--4-4-4-4-4-4-4-4--2-2-2-2-2-2-2-2--4-4-4-4-4-4-4-4-------|
E|--------------------------------------------------------------------------|

Outro  "May the world we know disappear"(Play right inline with "The World")
G|--------------------------------------------------------------------------|
D|--7h9>--------------------------------------------------------------------|
A|--------------------------------------------------------------------------|
E|--------------------------------------------------------------------------|

  "Oh, Oh-oh, Oh-oh, Oh-oh, Yah!...."                                     x2
G|--------------------------------------------------------------------------|
D|-----------------------------------------------------7h9>-----------------|
A|----2h4\2-----------------------------------------------------------------|
E|--------------------------------------------------------------------------|


8.it hurts

Intro
Come in at 0:12
G|---------------------------------------------------------------------------|
D|---------------------------------------------------------------------------|
A|---------------------------------------------------------------------------|
E|--55------55------5-5-55---------------------------------------------------|

Chorus-0:44 "It Hurts, It Hurts..."   (Second time end on 5~)
G|---------------------------------------------------------------------------|
D|---------------------------------------------------------------------------|
A|-----------------------99999999--55555555 (x2)-----------------------------|
E|--55555555--777777777---------------------------5~-------------------------|

Prechorus-1:35 "How did i let her inside..."
G|---------------------------------------------------------------------------|
D|---------------------------------------------------------------------------|
A|--44444444-55555555----------77777777-99999999-55555555----------77777777--|
E|--------------------55555555----------------------------55555555-----------|

Play Chorus again-1:48"It Hurts,It Hurts"

Play Prechorus again-2:26 "How did i let her inside"

Bridge-2:39 "Dream, you want it..."
G|---------------------------------------------------------------------------|
D|---------------------------------------------------------------------------|
A|---------9999999999999999-7777777777777777-5555555555555555-999999999999999|
E|5~-(x16)-------------------------------------------------------------------|

Play Prechorus again- 3:17 "How did i let her inside"

Play Chorus again-3:30 "It Hurts, It Hurts..." (x2)


* day

Verse
0:09
G|---------------------------------------------------------------------------|
D|---------------------------------------------------------------------------|
A|---------------------------------------76----------------------------------|
E|--77777---2/44444---7-77777---2/4444-4-----77777---2/4444------------------|

0:23
G|---------------------------------------------------------------------------|
D|---------------------------------------------------------------------------|
A|-----------------------------------------76--------------------------------|
E|-77777-2/44444-2/4\2---77777---2/4444--7------7-7777---4-44444-------------|


Pre-Chorus
"Oh I Need You Now"
0:46
G|---------------------------------------------------------------------------|
D|---------------------------------------------------------------------------|X2
A|---------------------------------------------------------------------------|
E|-7-----------------6-----------------4----------------6--------------------|

Chorus
"I think I like Today"
1:11
G|----------------------------|
D|----------------------------|
A|----------------------------|
E|-7--------------------------|

Verse
"True Love Is Something that Comes easy"
1:32
G|---------------------------------------------------------------------------|
D|---------------------------------------------------------------------------|
A|-----------------------------------------76--------------------------------|
E|-77777-2/44444-2/4\2---77777---2/4444--7------7-7777---4-44444-------------|


Pre-Chorus
"Oh I need You Now"
1:55
G|---------------------------------------------------------------------------|
D|---------------------------------------------------------------------------|
A|---------------------------------------------------------------------------|X2
E|-7-----------------6-----------------4----------------6--------------------|

Chorus
"I think I like Today"
2:20
G|---------------------------------------------------------------------------|
D|---------------------------------------------------------------------------|
A|---------9-7-6-6-6-67------------------------------------------------------|X2
E|-7-7-7-7--------------4-4-4-4--6-6-6-6-------------------------------------|

G|---------------------------------------------------------------------------|
D|---------------------------------------------------------------------------|
A|-------------997766666666666667--------------------------------------------|X2
E|-77777777777-------------------4444444444442-6666666666666666--------------|

Middle
3:10
G|--------------------------------------11---989--11--989-8-4----------------|
D|---------------------------------------------------------------------------|
A|---------------------------------------------------------------------------|
E|-7----------------7--------------7-----------------------------------------|

Chorus
"I think I like Today"
3:35
G|---------------------------------------------------------------------------|
D|---------------------------------------------------------------------------|
A|-------------997766666666666667--------------------------------------------|X4
E|-77777777777-------------------4444444444442-6666666666666666--------------|


End.
"Something I Can't Get my Head Around"
4:27
E|-----7---------|



10.
start the machine

Verse

G|---------------------------------------------------|
D|---------------------------------------------------|
A|-66666666-77777777-22222222------------------------|
E|----------------------------22222222---------------|


Chorus


G|---------------------------------------------------|
D|---------------------------------------------------|
A|22222222--------2222222211111111-------------------|
E|--------22222222----------------1111111122222222---|

Verse

Chorus

Bridge

G|---------------------------------------------------|
D|---------------------------------------------------|
A|2222222244444444---------77777777------------------|
E|----------------44444444---------------------------|


Outro (If Loves the word...)

G|---------------------------------------------------|
D|---------------------------------------------------|
A|2222222222222222---------77777777------------------|
E|----------------22222222---------------------------|


End on

G|------|
D|------|
A|-2----|
E|------|
exibições 529

0 comentários

mostrar mais comentários

Conseguiu tocar?

0 tocaram 0 ainda não

Grave um vídeo tocando We Dont Need To Whisper e mande pra gente!

00:00 / 00:00
outros vídeos desta música
repetir qualidade Automático
Outros vídeos desta música
00:00 / 00:00
Automático
OK