Enviar cifraEntrar

Quanto Tempo Demora um Mês

Biquini Cavadão

Cifra: Principal
exibições 295.071
Tom: F#
Intro: F#  B

Riff da Introdução:


E|-----------------------------------------------------------------------------|
B|-----------------------------------------------------------------------------|
G|-----------------------------------------------------------------------3-----|
D|-----------6--8----------------6--8----------------6--8-------------6-----6--|
A|--9--------------9-----8-------------8-----6-------------6----4--------------|
E|--6----6---------------6----6--------------6----6-------------4--4-----------|


E|---------------------------------2------------------------------2-------------------------|
B|----------------------2--------------2----------------2------------2----------------------|
G|------------3-------------3-------------3----------3-----3------------3-----------3-------|
D|--4-----4------4--------------4-----------------4-----------4------------------4-----4----|
A|--2--2-------------2-------------------------2------------------------------2-------------|
E|------------------------------------------------------------------------------------------|


F#
Acordei com o seu gosto
                     B
E a lembrança do seu rosto
                        F#
Porque você se fez tão linda

Mas agora você vai embora
                        B
Quanto tempo será que demora
     F#
Um mês pra passar?
B
 A vida inteira de um inseto,

Um embrião pra virar feto,

A folha do calendário,
        C#                C#4
Um trabalho pra ganhar um salário
F#
 Mas daqui à um mês (quando você voltar)
F#/D#                           B
Quando você voltar (daqui à um mês)

A lua vai tá cheia

E no mesmo lugar

Intro: F#  B

F#
 Se eu pudesse escolher
                B
Outra forma de ser
            F#
Eu seria você

E a saudade em mim agora
                        B
Quanto tempo será que demora
     F#
Um mes pra passar?
B
 Ser campeão da copa do mundo

Um dia em Saturno
          C#              C#4
Pra criança que não sabe contar
                  F#
Vai levar um tempão

F#
 Mas daqui à um mês (quando você voltar)
F#/D#                           B
Quando você voltar (daqui à um mês)

A lua vai tá cheia

E no mesmo lugar (2x)

(Intro 2x)

F#
 Mas daqui à um mês quando você voltar

A lua vai tá cheia
E no mesmo lugar.
  • 1
  • 2
  • 3
  • 4
  • 5
  • 6
  • 7
  • 8
  • 9
  • 10
  • 11
  • 12
    Acordes para:

      0 comentários

        mostrar mais comentários

        Conseguiu tocar?

        11tocaram1ainda não

        Grave um vídeo tocando Quanto Tempo Demora um Mês e mande pra gente!

        00:00 / 00:00
        outros vídeos desta música
        repetirqualidadeautomática
        • automática
        Outro vídeos desta música
          00:00 / 00:00
          automática
          • automática
          Acordes para:violão e guitarra
          dificuldadeexibiçõescontribuições
          fecharplay/pause subir/descer velocidade
            acordes
            fechar
            OK
            Feedback