Cifra Club

Real Life

Bon Jovi

Tab de baixo: Principal
Tabbed By : Dat Sumone
e-mail: *

Tuning: Standard
Note: |---1010101010101010---| = Tens
      |---1212121212121212---| = Twelves

Intro
G|---------------|
D|---------------|
A|---------------|
E|--5-5---5-5----|

Chorus (Without Vocals)
G|-----------------------------------------------|
D|-----------------------------------------------|
A|-----------------------------------------------| x2
E|--55555555-00000000-22222222-1010101010101010--|

Verse 
G|-----------------------------------------------|
D|-----------------------------------------------|
A|-----------------------------------------------| x2
E|--55555555-44444444-22222222-1010101010101010--|

G|-----------------------------------------------|
D|-----------------------------------------------|
A|-----------------------------------------------| 
E|--55555555-00000000-33333333-1010101010101010--|

G|-----------------------------------------------|
D|-----------------------------------------------|
A|-----------------------------------------------| 
E|--55555555-00000002-33333333-1010101010101010--|

Chorus 
G|-----------------------------------------------|
D|-----------------------------------------------|
A|-----------------------------------------------|
E|--55555555-00000000-22222222-1010101010101010--|

G|----------------------------------------|
D|----------------------------------------|
A|-------------------------------4-4-4----|
E|--55555555-00000000-33333333-55-5-5-10--|

G|---------|
D|---------|
A|---------|
E|--10~----|

Verse
G|--------------------------------------|
D|--------------------------------------|
A|----------------------------------4---|
E|--55555555-44444444-22222222-55555-5--|

G|-----------------------------------------------|
D|-----------------------------------------------|
A|-----------------------------------------------|
E|--55555555-44444444-33333333-1010101010101010--|

G|-----------------------------------------------|
D|-----------------------------------------------|
A|-----------------------------------------------|
E|--55555555-00000000-33333333-1010101010101010--|

Chorus
G|-----------------------------------------------|
D|-----------------------------------------------|
A|-----------------------------------------------|
E|--55555555-00000000-22222222-1010101010101010--|

G|----------------------------------------|
D|----------------------------------------|
A|-------------------------------4-4-4~---|
E|--55555555-00000000-33333333-55-5-5-----|

G|-----------------------------------------------|
D|-----------------------------------------------|
A|-----------------------------------------------|
E|--55555555-00000000-22222222-1010101010101010--|

G|---------------------|
D|---------------------|
A|---------------------|
E|--77777777-00000000--|

Bridge
G|-----------------------------------------------|
D|-----------------------------------------------|
A|-----------------------------------------------|
E|--33333333-77777777-1010101010101010-55555555--|

G|------------------------------------------------------------------------|
D|------------------------------------------------------------------------|
A|------------------------------------------------------------------------|
E|--0--------2--------5--------9-------1212121212121212-1212121212121212--|

Chorus
G|-----------------------------------------------|
D|-----------------------------------------------|
A|-----------------------------------------------|
E|--55555555-00000000-22222222-1010101010101010--|

G|----------------------------------------|
D|----------------------------------------|
A|-------------------------------4-4-4~---|
E|--55555555-00000000-33333333-55-5-5-----|

G|-----------------------------------------------|
D|-----------------------------------------------|
A|-----------------------------------------------|
E|--55555555-00000000-22222222-1010101010101010--|

G|---------------------|
D|---------------------|
A|---------------------|
E|--77777777-00000000--|

G|---------------------|
D|---------------------|
A|---------------------|
E|--5~-----------------|


| /  slide up
| \  slide down
| h  hammer-on
| p  pull-off
| ~  vibrato
| +  harmonic
| x  Mute note
exibições 492

0 comentários

mostrar mais comentários

Conseguiu tocar?

0 tocaram 0 ainda não

Grave um vídeo tocando Real Life e mande pra gente!

00:00 / 00:00
outros vídeos desta música
repetir qualidade Automático
Outros vídeos desta música
00:00 / 00:00
Automático
OK