Cifra Club

Me Encontra

Charlie Brown Jr.

Tab de baixo: Principal
Selo Cifra Club: esta cifra foi revisada para atender aos critérios oficiais da nossa Equipe de Qualidade.
tom: Afinação:
[Intro]

Gb|------------------------------------------------------------------|
Db|------------------------------------------------------------------|  (4x)
Ab|--------4-4-4------7-7-7-7-7--------------------------------------|
Eb|-----------------------------------5-5-5------14-14-14-12-11------|

[Primeira Parte]

Gb|-------------------------------------------------------------------|
Db|-------------------------------------------------------------------|  (5x)
Ab|--------44444------77777777----------------------------------------|
Eb|-----------------------------------55555------14-14-12-12-11-11----|

[Refrão]

Gb|-------------------------------------------------------------|
Db|-------------------------------------------------------------|  (4x)
Ab|--------4-4-4------7-7-7-7-7---------------------------------|
Eb|-----------------------------------7-7-7-------5-5-5-5-5-----|

Gb|------------------------------------------------------------------|
Db|------------------------------------------------------------------|  (2x)
Ab|--------4-4-4------7-7-7-7-7--------------------------------------|
Eb|-----------------------------------5-5-5------14-14-14-12-11------|

Gb|-------------------------------------------------------------------|
Db|-------------------------------------------------------------------|  (2x)
Ab|--------44444------77777777----------------------------------------|
Eb|-----------------------------------55555------14-14-12-12-11-11----|

Gb|-------------------------------------------------------------|
Db|-------------------------------------------------------------|  (8x)
Ab|--------4-4-4------7-7-7-7-7---------------------------------|
Eb|-----------------------------------7-7-7-------5-5-5-5-5-----|

[Solo]

Gb|----------------------------8-9-8---8-9----------------------------------------| 
Db|--------------11p9------9---------9-----9---------9-11---11-9------------------|
Ab|-----------------------------------------------9-11--------------11------------|
Eb|----2/9----------------------------------------------------------------5--7--5-|


Gb|------------------------------------------------------------------|
Db|------------------------------------------------------------------|  (4x)
Ab|--------4-4-4------7-7-7-7-7--------------------------------------|
Eb|-----------------------------------5-5-5------14-14-14-12-11------|

Gb|-------------------------------------------------------------|
Db|-------------------------------------------------------------|
Ab|--------4-4-4------7-7-7-7-7---------------------------------|
Eb|-----------------------------------7-7-7-------5-5-5-5-5-----|
Outros vídeos desta música
    23.607 exibições

    Afinação da cifra

    Afinador online

    0 comentários

    Ver todos os comentários

    Entre para o Cifra Club PRO

    Tenha acesso a benefícios exclusivos no App e no Site

    • Chega de anúncios

    • Badges exclusivas

    • Mais recursos no app do Afinador

    • Atendimento Prioritário

    • Aumente seu limite de lista

    • Ajude a produzir mais conteúdo

    Cifra Club Pro

    Aproveite o Cifra Club com benefícios exclusivos e sem anúncios
    Cifra Club Pro
    Aproveite o Cifra Club com benefícios exclusivos e sem anúncios
    OK