Cifra Club

Não É Sério

Charlie Brown Jr.

Cifra: Principal (violão e guitarra)
Selo Cifra Club: esta cifra foi revisada para atender aos critérios oficiais da nossa Equipe de Qualidade.
tom: Ebm (forma dos acordes no tom de Em) Afinação: Eb Ab Db Gb Bb Eb
[Intro] Em  G  Em  G 
        Em  G  Em  G 
        
E|------------------------------------------|
B|------------------------------------------|
G|---9-------9------------------------------|
D|---9-------9------------------------------|
A|---7-------7------------------------------|
E|------------------------------------------|

E|------------------------------------------|
B|---3h5--7h8p7--5\3---3--5--3h5------------|
G|-------------------4----------------------|
D|------------------------------------------|
A|------------------------------------------|
E|------------------------------------------|

E|----------------3--5----------------------|
B|---7/8-7--5\3-----------------------------|
G|--------------4---------------------------|
D|------------------------------------------|
A|------------------------------------------|
E|------------------------------------------|

E|------------------------------------------|
B|---3h5--7h8p7--5\3---3--5--3h5------------|
G|-------------------4----------------------|
D|------------------------------------------|
A|------------------------------------------|
E|------------------------------------------|

E|-----------------5--7---------------------|
B|---7/8-7--5\3----3--5---------------------|
G|--------------4---------------------------|
D|------------------------------------------|
A|------------------------------------------|
E|------------------------------------------|

[Refrão]

            Em
Eu vejo na TV o que eles falam 

Sobre o jovem não é sério
   G
O jovem no Brasil 

Nunca é levado a sério
            Em
Eu vejo na TV o que eles falam 

Sobre o jovem não é sério
G
  Não é sério
            Em
Eu vejo na TV o que eles falam 

Sobre o jovem não é sério
   G
O jovem no Brasil 

Nunca é levado a sério
            Em
Eu vejo na TV o que eles falam 

Sobre o jovem não é sério
G
  Não é sério

[Primeira Parte]

               Em
Sempre quis falar

Nunca tive chance
                G
Tudo que eu queria

Estava fora do meu alcance

Sim, já
Em
  Já faz um tempo

Mas eu gosto de lembrar
     G
Cada um, cada um 

Cada lugar, um lugar
    Em
Eu sei como é difícil
                             G
Eu sei como é difícil acreditar

Mas essa porra 

Um dia vai mudar
Em
   Se não mudar, pra onde vou
                   G
Não cansado de tentar de novo

Passa a bola, eu jogo o jogo

[Refrão]

            Em
Eu vejo na TV o que eles falam 

Sobre o jovem não é sério
   G
O jovem no Brasil 

Nunca é levado a sério
            Em
Eu vejo na TV o que eles falam 

Sobre o jovem não é sério
G
  Não é sério
            Em
Eu vejo na TV o que eles falam 

Sobre o jovem não é sério
   G
O jovem no Brasil 

Nunca é levado a sério
            Em
Eu vejo na TV o que eles falam 

Sobre o jovem não é sério
G
  Não é sério

[Segunda Parte]

     Em
A polícia diz que já 

Causei muito distúrbio
     G
O repórter quer saber 

Porque eu me drogo

O que é que eu uso
       Em
Eu também senti a dor

E disso tudo eu fiz a rima
  G
Agora tô por conta
                           Em
Pode crer que eu tô no clima
             G               Em
Eu tô no clima, eu tô no clima
             G
Eu tô no clima, segue a rima
       Em
Revolução na sua mente

Você pode você faz
G
  Quem sabe mesmo 

É quem sabe mais

       Em
Revolução na sua mente

Você pode você faz
G
  Quem sabe mesmo 

       Em
Revolução na sua mente

Você pode você faz
G
  Quem sabe mesmo 

É quem sabe mais
                Em
Também sou rimador

Também sou da banca
              G
Aperta um do forte 

Que fica tudo a pampa
Em                              G
   Eu tô no clima, eu tô no clima
             Em              G
Eu tô no clima, eu tô no clima

Segue a Rima!
 
[Solo] Em  G  Em  G 
       Em  G  Em  G 
        
E|------------------------------------------|
B|------------------------------------------|
G|---9-------9------------------------------|
D|---9-------9------------------------------|
A|---7-------7------------------------------|
E|------------------------------------------|

E|------------------------------------------|
B|---3h5--7h8p7--5\3---3--5--3h5------------|
G|-------------------4----------------------|
D|------------------------------------------|
A|------------------------------------------|
E|------------------------------------------|

E|----------------3--5----------------------|
B|---7/8-7--5\3-----------------------------|
G|--------------4---------------------------|
D|------------------------------------------|
A|------------------------------------------|
E|------------------------------------------|

E|------------------------------------------|
B|---3h5--7h8p7--5\3---3--5--3h5------------|
G|-------------------4----------------------|
D|------------------------------------------|
A|------------------------------------------|
E|------------------------------------------|

E|-----------------5--7---------------------|
B|---7/8-7--5\3----3--5---------------------|
G|--------------4---------------------------|
D|------------------------------------------|
A|------------------------------------------|
E|------------------------------------------|

[Primeira Parte]

               Em
Sempre quis falar

Nunca tive chance
                G
Tudo que eu queria

Estava fora do meu alcance

Sim, já
Em
  Já faz um tempo

Mas eu gosto de lembrar
     G
Cada um, cada um 

Cada lugar, um lugar
    Em
Eu sei como é difícil
                             G
Eu sei como é difícil acreditar

Mas essa porra 

Um dia vai mudar
Em
   Se não mudar, pra onde vou
                   G
Não cansado de tentar de novo

Passa a bola, eu jogo o jogo

[Refrão]

            Em
Eu vejo na TV o que eles falam 

Sobre o jovem não é sério
   G
O jovem no Brasil 

Nunca é levado a sério
            Em
Eu vejo na TV o que eles falam 

Sobre o jovem não é sério
G
  Não é sério
            Em
Eu vejo na TV o que eles falam 

Sobre o jovem não é sério
   G
O jovem no Brasil 

Nunca é levado a sério
            Em
Eu vejo na TV o que eles falam 

Sobre o jovem não é sério
G
  Não é sério

[Segunda Parte]

     Em
A polícia diz que já 

Causei muito distúrbio
     G
O repórter quer saber 

Porque eu me drogo

O que é que eu uso
       Em
Eu também senti a dor

E disso tudo eu fiz a rima
  G
Agora tô por conta
                           Em
Pode crer que eu tô no clima
             G               Em
Eu tô no clima, eu tô no clima
             G
Eu tô no clima, segue a rima
       Em
Revolução na sua mente

Você pode você faz
G
  Quem sabe mesmo 

É quem sabe mais

       Em
Revolução na sua mente

Você pode você faz
G
  Quem sabe mesmo 
       Em
Revolução na sua mente

Você pode você faz
G
  Quem sabe mesmo 

É quem sabe mais
Em                              G
   Eu tô no clima, eu tô no clima
             Em              G
Eu tô no clima, eu tô no clima

Segue a Rima!
       Em
Revolução na sua mente

Você pode você faz
G
  Quem sabe mesmo 

É quem sabe mais

       Em
Revolução na sua mente

Você pode você faz
G
  Quem sabe mesmo 

       Em
Revolução na sua mente

Você pode você faz
G
  Quem sabe mesmo 

É quem sabe mais
Em                   
   Eu tô no clima

( G  Em  G )

[Terceira Parte]

      Em
O que eu consigo ver 

É só um terço do problema
        G
É o Sistema que tem que mudar
        Em
Não se pode parar de lutar
           G
Senão não muda
        Em
A Juventude tem que estar a fim
             G
Tem que se unir
    Em
O abuso do trabalho infantil
             G
A ignorância
                       Em
Só faz destruir a esperança
Em
   Na TV o que eles falam 
                     G
Sobre o jovem não é sério
 Em          G              Em
Deixa ele viver! É o que liga
Outros vídeos desta música
    615.861 exibições
    • Simplificar cifra
      • ½ Tom
      • Am
      • Bbm
      • Bm
      • Cm
      • C#m
      • Dm
      • Ebm
      • Em
      • Fm
      • F#m
      • Gm
      • G#m
    • Adicionar à lista

    Afinação da cifra

    Afinador online

      0 comentários

      Ver todos os comentários

      Entre para o Cifra Club PRO

      Tenha acesso a benefícios exclusivos no App e no Site

      • Chega de anúncios

      • Mais recursos no app do Afinador

      • Atendimento Prioritário

      • Aumente seu limite de lista

      • Ajude a produzir mais conteúdo

      Cifra Club Pro

      Aproveite o Cifra Club com benefícios exclusivos e sem anúncios
      Cifra Club Pro
      Aproveite o Cifra Club com benefícios exclusivos e sem anúncios
      OK