Cifra Club

Cemeteries Of London

Coldplay

Cifra: Principal
exibições 19.807
Tom: D (com acordes na forma de G#) Capotraste na 6ª casa
  Em7/G

E|--0--|
B|--0--|
G|--4--|
D|--5--|
A|--5--|
E|--3--|


    Am                  C/G
At night they would go walking
            Em            Am
'til the breaking of the day
     Am              C/G     Em
The morning is for sleeping
             Am                      C/G
Through the dark streets, they'd go searching
        Em               Am
to see God on their own way
          Am              C/G    Em
Save the night time for your weeping
       Am
Your weeping...


        C/G            Em7/G   Am
Singing la la la la la la la ley
         C/G        Em7/G   Am
And the night over London lay


       Am               C/G
So we rode down to the river
          Em             Am
where Victorian ghosts pray
           Am            C/G    Em
for their curses to be broken
      Am              C/G
We go underneath the arches
           Em                   Am
where the witches are in there saying
             Am               C/G    Em
"There are ghost towns in the ocean"
      Am
The ocean...


        C/G            Em7/G   Am
Singing la la la la la la la ley
         C/G        Em7/G   Am
And the night over London lay


(Solo) Am C/G Em Am
       Am C/G Em
       Am C/G Em Am
       Am C/G Em
       Am


E|--11~---9-8~-----8h9-9---------11~---9-8~-----8h9-9----13--11-9-8-|
B|--------------9---------9------------------9----------------------|
G|--------------------------10--------------------------------------|
D|------------------------------------------------------------------|
A|------------------------------------------------------------------|
E|------------------------------------------------------------------|

E|--------11-9-8--|                E|--------13-9-8--|
B|--11-11---------|                B|--11-11---------|
G|----------------|                G|----------------|
D|----------------|   (x6)         D|----------------|   (x2)
A|----------------|                A|----------------|
E|----------------|                E|----------------|


 Am            C/G
God is in the houses
     Em           Am
and God is in my head
             Am            C/G    Em
And all the cemeteries of London
       Am             C/G
I see God come in my garden
       Em                 Am
But I don't know what he said
         Am             C/G    Em
For my heart, it wasn't open
    Am
Not open...


        C/G            Em7/G   Am
Singing la la la la la la la ley
         C/G        Em7/G   Am
And the night over London lay

        C/G            Em7/G   Am
Singing la la la la la la la ley
         C/G          Em7/G     Am     ( Am )
There's no light over London today
Acordes para:
    Composição: Chris Martin / Guy Berryman / Jon Buckland / Will ChampionColaboração e revisão:
    • Lucas Carvalho
    • Pedro Dall'Agnese
    • André Vidotto

    0 comentários

      mostrar mais comentários

      Conseguiu tocar?

      3tocaram0ainda não

      Grave um vídeo tocando Cemeteries Of London e mande pra gente!

      00:00 / 00:00
      outros vídeos desta música
      repetirqualidadeautomática
      Outro vídeos desta música
        00:00 / 00:00
        automática
        OK