Cifra Club

Aprenda

Cartão de Visita

Criolo

Tab de baixo: Principal
Acende o incenso... (00:15)
G|--------------------------------6h8p6--4h6---------------| 5x
D|-------------------------------------------4-------------|
A|------------4----------------4---------------------------|
E|-4--4-4-2-4---2-2-4--4-4-2-4-----------------------------|

Achar que tá mamão... (01:06)
G|---------------------------------------------------------| 1x
D|---------------6-4----------------------6----------------|
A|------------4------7-6--------------2-4---9-6-4----------|
E|-4--4-4-2-4------------4--2-4-2-4-4-------------2h4-2h4--|

G|---------------------------------------------------------| 1x
D|------------6-4----------------------6-------------------|
A|---------4------7-6--------------2-4---9-9-4-------------|
E|-4-4-2-4------------4--2-4-2-4-4-------------4-----------|

O governo estimula... (01:32)
G|---------------------------------------------------------| 6x
D|---------6---6-------------------------------------------|
A|-----------6---------------------------------------------|
E|-4-6-7-6-------2-2---------------------------------------|

Era tudo mentira... (02:01)
G|--------------------------------6h8p6--4h6---------------| 1x
D|-------------------------------------------4-------------|
A|-------------4----------------4--------------------------|
E|-4/--4-4-2-4---2-2-4--4-4-2-4----------------------------|

Achar que tá mamão... (02:12)
G|---------------------------------------------------------| 
D|---------------6-4----------------------6----------------|
A|------------4------7-6--------------2-4---9-6-4----------| <--|
E|-4--4-4-2-4------------4--2-4-2-4-4-------------2h4-2h4--|    |
                                                                | até o fim
G|---------------------------------------------------------|    |
D|------------6-4----------------------6-------------------| <--|
A|---------4------7-6--------------2-4---9-9-4-------------|
E|-4-4-2-4------------4--2-4-2-4-4-------------4-----------|
Compositor não encontrado.
Colaboração e revisão:
  • Walter Brow
11.001 exibições

0 comentários

Ver todos os comentários

Conseguiu tocar?

0 Tocaram 0 Ainda não

Grave um vídeo tocando Cartão de Visita e nos envie!

00:00 / 00:00
Outros vídeos desta música
Repetir Qualidade Automático
Outros vídeos desta música
00:00 / 00:00
Automático

Cifra Club Pro

Aproveite o Cifra Club com benefícios exclusivos e sem anúncios
Cifra Club Pro
Aproveite o Cifra Club com benefícios exclusivos e sem anúncios
OK