Cifra Club

Aprenda

Fermento Pra Massa

Criolo

Tab de baixo: Principal
Já pensou em usar uma coleção de roupas do Cifra Club? Responda as perguntas abaixo e nos ajude nessa missão! →
Versos principais 1
G|--------------------------------------------------| 
D|-------11-----------4----------9------------11----|
A|-12-12----12----5-5---5----7-7---7----12-12----12-|
E|--------------------------------------------------|

Versos principais 2
G|--------------------------------------------------| 
D|----7~----7~----7~-------------6-7~---------------|
A|---------------------------5-7--------------------|
E|-7~----7~----7~----7-7-7-7------------------------|

(02:07)
G|--------------------------------------------------| 1x
D|-7-6-------------6-7-7-6-5-4-4-----------6-7------|
A|-----7-----5-6-7-------------------5-6-7----------|
E|-------7-7---------------------7-7----------------|

(02:17)
G|-14-13-12-----------------------------------------| 1x
D|----------16-14-13-12-12-13-14--------------------|
A|-------------------------------11-12-12-10-10-9---|
E|--------------------------------------------------|

(02:23)
G|------------------------6-4-----------------------| 1x
D|--------------6-5-0-5-4----7-6-4----6-7~----------|
A|--------5-6-7--------------------7----------------|
E|-10-8-7-------------------------------------------|

Fim (03:15)
G|--------------------------------------------------| 2x 
D|-0-7~-----------0-7~------------------------------|
A|-----------0-7~-----------------------------------|
E|------0-7~----------------------------------------|
Composição de Criolo
Colaboração e revisão:
  • Walter Brow
118 exibições

0 comentários

Ver todos os comentários

Conseguiu tocar?

0 Tocaram 0 Ainda não

Grave um vídeo tocando Fermento Pra Massa e nos envie!

00:00 / 00:00
Outros vídeos desta música
Repetir Qualidade Automático
Outros vídeos desta música
00:00 / 00:00
Automático

Cifra Club Pro

Aproveite o Cifra Club com benefícios exclusivos e sem anúncios
Cifra Club Pro
Aproveite o Cifra Club com benefícios exclusivos e sem anúncios
OK