Cifra Club

Aprenda

MST

Dead Fish

Tab de baixo: Principal
Essa música é muito boa para ser tocada em shows...
Ótima música e uma ótima letra
escute antes e toque c/palheta!
DEAD FISH/ES/BRASIL - HARDCORE DO 3° MUNDO!

intro/2x:	*=5x
G-|-----------------------------|
D-|-*-----*-----*-----*--------|
A-|-0-----7-----3-----5----3-2-|
E-|-----------------------------|

versos:	*=5-6x
G-|-----------------------------|-------------------------*-->
D-|-*-----*-----*-----*--------|-*-----*-----*----*-----5-->
A-|-0-----7-----3-----5----3-2-|-0-----7-----3-----5-------->
E-|-----------------------------|----------------------------->

G-|-----------------------|------------------------|
D-|-*-----------*-----*--|-*------------*-----*--|
A-|-0-----*-----3-----5--|-0-----*------3-----5--|
E-|-------0---------------|-------0---------------|

refrão/4x:	*3-4x
G-|---------------------------|
D-|-*-----*-----*------------|
A-|-0-----7-----3-----*------|
E-|-------------------3--3-4-|

[toque versos (as duas primeiras partes) depois o "versos" todo]

ponte:	*=5x	#=4x
G-|-----------------------------|
D-|-*-----#-----*-----#--------|
A-|-0-----7-----3-----5-----3-2-|
E-|------------------------------|

[depois toque versos + refrão]


_______________________________________________________
Contribuição: Eduardo Lima(fleafieldy@hotmail.com)
Composição de Rodrigo Lima
2.716 exibições

0 comentários

Mostrar mais comentários

Conseguiu tocar?

0 Tocaram 0 Ainda não

Grave um vídeo tocando MST e mande pra gente!

00:00 / 00:00
outros vídeos desta música
repetir qualidade Automático
Outros vídeos desta música
00:00 / 00:00
Automático

Cifra Club Pro

Aproveite o Cifra Club com benefícios exclusivos e sem anúncios
Cifra Club Pro
Aproveite o Cifra Club com benefícios exclusivos e sem anúncios
OK