Cifra Club

Aprenda

O Inferno São Os Outros

Detonautas

Tab de baixo: Principal
(intro)
G--------------------------------------------------------------
D--------------------------------------------------------------
A-------------------------------------------------------------- 
E—22222x—22x---22222x-22x-----55555x-55x---55555x-55x----------

G--------------------------------------------------------------
D--------------------------------------------------------------
A-------------------------------------------------------------- 
E—22222x—22x---22222x-22x-----55555x-55x---55555x-55x----------

(verso)
G--------------------------------------------------------------
D--------------------------------------------------------------
A--------------------------------------------------------------
E-22x-22x---22x-22x---55x-55x---55x-55x------------------------

G--------------------------------------------------------------
D--------------------------------------------------------------
A-------------------------------------------------------------- 
E—22x-22x---22x-22x---55x-55x---55x-55x---/5-0~0~0~--0~0~0~----

G--------------------------------------------------------------
D--------------------------------------------------------------
A-------------------------------------------------------------- 
E—22x-22x---22x-22x---/5-0~0~0~-0~0~0~---22x-22x---22x-22x-----

G--------------------------------------------------------------
D--------------------------------------------------------------
A-------------------------------------------------------------- 
E—/5-0~0~0~--0~0~0~---22x-22x---22x-22x------------------------

(ponte)
  "E você..."
G-----------------11~---------------------------------------11~
D----7~--------9~------------------------------7~--------9~----
A-5~----5~--7~------------------------------5~----5~--7~------- 
E—--------------------22x-02x---22x-02x-2x---------------------

G-----------------------			
D-----------------------
A-----------------------
E—22x-02x---22x-02x-2x--

(refrão)
G-------------------------------7~-----------------------------
D---------------7~--------7~------7~------------------7~-------
A------------5~----5~--5~----5~-----5~------------5~------5~---
E—000~-000~----------------------------000~-000~---------------

G----------7~----7~--------------------------------------------
D----7~-7~----7~----7~---------------7~---------7~-------------
A-5~------------------------------5~----5~---5~----5~----------
E----------------------000~-000~-------------------------------

  “Deixo a porta aberta...”
G--------------------------------------------------------------
D--------------------------------------------------------------
A--------------------------------------------------------------
E—00x-00x---00x-00x---22x-22x---22x-22x---00x-00x---00x-00x----

G--------------------------------------------------------------
D--------------------------------------------------------------
A-------------------------------------------------------------- 
E—2~2~2~---2~2~2~---5~5~5~---5~5~5~---2~2~2~---2~2~2~---5~5~5~-

G--------------------------------------------------------------
D--------------------------------------------------------------
A-------------------------------------------------------------- 
E—5~5~5~-------------------------------------------------------

(ponte)
  "E você..."
G-----------------11~---------------------------------------11~
D----7~--------9~------------------------------7~--------9~----
A-5~----5~--7~------------------------------5~----5~--7~------- 
E—--------------------22x-02x---22x-02x-2x---------------------

G-----------------------			
D-----------------------
A-----------------------
E—22x-02x---22x-02x-2x--

(refrão)
G-------------------------------7~------------------------7~---
D---------------7~--------7~------7~------------------7~-------
A------------5~----5~--5~----5~-----5~------------5~-----------
E—000~-000~----------------------------000~-000~---------------

G----------7~----------------------------------------7~--------
D----7~------7~----------------------7~---------7~------7~-----
A-5~----5~-----5~-----------------5~----5~---5~----5~------5~--
E-------------------000~-000~----------------------------------

G--------------------------------------------------------------
D--------------------------------------------------------------
A--------------------7~---------------------------------------- 
E—000~-000~---5~-----------5~~~~-------------------------------

(final)
G--------------------------------------------------------------
D--------------------------------------------------------------
A-------------------------------------------------------------- 
E—22222x—2-2---22222x-2-2-----55555x-5-5---55555x-5-5----------

G----------------------------------------------------------------
D----------------------------------------------------------------
A---------------------------------------------------------------- 
E—22222x—2-2---22222x-2-2-----55555x-5-5---55555x-5-5---/5-2202x-
Composição de DJ Cleston / Fábio Brasil / Renato Rocha / Tico Santa Cruz
Colaboração e revisão:
  • Carlos Gomes
2.923 exibições

0 comentários

Ver todos os comentários

Conseguiu tocar?

2 Tocaram 0 Ainda não

Grave um vídeo tocando O Inferno São Os Outros e nos envie!

00:00 / 00:00
Outros vídeos desta música
Repetir Qualidade Automático
Outros vídeos desta música
00:00 / 00:00
Automático

Cifra Club Pro

Aproveite o Cifra Club com benefícios exclusivos e sem anúncios
Cifra Club Pro
Aproveite o Cifra Club com benefícios exclusivos e sem anúncios
OK