Notificações Amigos pendentes

      Engenheiros do Hawaii

      Ninguém = Ninguém

      176.802 exibições
      Tom: A
      Introdução: A
      
      1ª Parte: Solo (várias vezes)
      
      
      E|----------------|
      B|----7/10--------|
      G|9/6------9/6/2--|
      D|----------------|
      A|----------------|
      E|----------------|
      
      
      2ª Parte: Há tantos quadros na parede...
               ...e nenhuma é igual a outra... (ouça a música e tire as dúvidas)
      
      E|-------------------------------|
      B|-------------------------------|
      G|7/9--------7/9-----------------|
      D|---10---------10------9/7--6/4-|
      A|-------------------------------|
      E|-------------------------------|
      
      
      
      A
      Há tantos quadros na parede
                              D            A    D E
      Há tantas formas de se ver o mesmo quadro
                A
      Há tanta gente pelas ruas
                           D              A    D A
      Há tantas ruas e nenhuma é igual a outra
               D      E
      Ninguém = ninguém
            D
      Me espanta que tanta gente sinta
                                      A
      (se é que sente) a mesma indiferença
      
      Há tantos quadros na parede
                              D            A    D A
      Há tantas formas de se ver o mesmo quadro
      
      Há palavras que nunca são ditas
                           D            F#m E F#m E
      Há muitas vozes repetindo a mesma frase:
              F#m    E
      Ninguém = ninguém
           D
      Me espanta que tanta gente minta
                                  A
      (descaradamente) a mesma mentira
      
             F#m
      Todos iguais
             A
      Todos iguais 
          D                      A
      mas uns mais iguais que os outros
      
               A
      Há pouca água e muita sede
      
      Uma represa, um apartheid
                       D     A       D A
      (a vida seca, os olhos úmidos)
      
      Entre duas pessoas
      
      Entre quatro paredes
      
      Tudo fica claro
               D         F#m E F#m E
      Ninguém fica indiferente
              F#m    E
      Ninguém = ninguém
            D
      Me assusta que justamente agora
                                           A
      Todo mundo (tanta gente) tenha ido embora
      
             F#m
      Todos iguais
             A
      Todos iguais
          D                      A
      mas uns mais iguais que os outros
      
      Solo
      
      
      E|10-12-14-12-10--------|--------------|10-12-14-12-10----10-------|----------------|
      B|---------------12~~---|--------------|---------------12----12----|-----------9/10~|
      G|-------------------10-|7-9-11-9-7-7~~|------------------------10-|7-9-11-9-7------|
      D|----------------------|--------------|---------------------------|----------------|
      A|----------------------|--------------|---------------------------|----------------|
      E|----------------------|--------------|---------------------------|----------------|
      
      
      E|------------------------------------------------|-----------------------------------------|
      B|12~~--------------------------------------------|-----------------------------------------|
      G|---11-11-13-11-11--11-13-11-11--11-13-11-11--11-|-11~~-7-7-9-7-7--7-9-7-7--7-9-7-7--7-9-7-|
      D|------------------------------------------------|-----------------------------------------|
      A|------------------------------------------------|-----------------------------------------|
      E|------------------------------------------------|-----------------------------------------|
      
      
                3x  
      
      E|----------------|  |---|
      B|------0-3-0---0-|  |---|
      G|----1-------2---|  |-2-|
      D|2-2-------------|  |---|
      A|----------------|  |---|
      E|----------------|  |---|
      
      
                 D
      O que me encanta é que tanta gente
      
      Sinta (se é que sente)
      
      Ou
      
      Minta (desesperadamente)
                A
      Da mesma forma
      
             F#m
      Todos iguais
             A
      Todos iguais
          D                      A
      mas uns mais iguais que os outros
              F#m
      tão desiguais...
                A     D   A
      tão desiguais...
        Composição: Humberto GessingerColaboração e revisão:
        • Brenno
        • vini
        • ghsoliveira15

        Comentários 0

        140 .
        140 cancelar

        conseguiu tocar?

        • •••

        covers

        Grave um vídeo tocando Ninguém = Ninguém e mande pra gente!

        Ex.: http://www.youtube.com/watch?v=0IvSvIwGdwk
        ver covers de outras músicas »
        0:00 / 0:00

        Capítulos

          1 versão de violão dificuldade exibições contribuição e correção
          1 versão de guitarra dificuldade exibições contribuição e correção
          1 versão de cavaco dificuldade exibições contribuição e correção
          1 versão de teclado dificuldade exibições contribuição e correção
          1 versão de baixo exibições contribuição e correção
          play/pausefechar subir/descer velocidade
          6ª corda E5ª corda A4ª corda D3ª corda G2ª corda B1ª corda E
            acordes
            publicidade
            fechar
            ok