Notificações Amigos pendentes

      Engenheiros do Hawaii

      Ouça o Que Eu Digo, Não Ouça Ninguém

      5.775 exibições
      ( Versão ao vivo 88 )
      
      intro 
      
      G---12h14--12---------------------------------------------------------------------|
      D-----------14-12-----------------------------------------------------------------|
      A---------------------------------------------------------------------------------|
      E------------------15-------------------------------------------------------------|
      
      G------------------------------------------------------------5---4---0---7--------|
      D---------------------------------------------------------------------------------|
      A--------2-3h5----3-------2-3h5-----3-------2-3h5----3-----3---2---0---5----------|
      E-----3--------1----1---3--------1-----1--3-------1-----1-------------------------|
      
      Tantas pessoas paradas na esquina, assistindo a cena
      
      G------------------------------------------------------------0---4---5---7--------|
      D---------------------------------------------------------------------------------|
      A--------2-3h5----3-------2-3h5-----3-------2-3h5----3-----0---2---3---5----------|
      E-----3--------1----1---3--------1-----1--3-------1-----1-------------------------|
      
      Pele morena, vendendo jornais, vendendo muito mais do que queria vender
      
      G------------------------------------------------------------5---4---0---7--------|
      D---------------------------------------------------------------------------------|
      A--------2-3h5----3-------2-3h5-----3-------2-3h5----3-----3---2---0---5----------|
      E-----3--------1----1---3--------1-----1--3-------1-----1-------------------------|
      
      Vozes a toa, ecos na esquina, narrnado a cena
      
      G------------------------------------------------------------0---4---5---7--------|
      D---------------------------------------------------------------------------------|
      A--------2-3h5----3-------2-3h5-----3-------2-3h5----3-----0---2---3---5----------|
      E-----3--------1----1---3--------1-----1--3-------1-----1-------------------------|
      
      Pele morena, vendendo jornais, precisando de  mais , venenos mortais
      
      G------------------------------------------------------------5---4---0---7--------|
      D---------------------------------------------------------------------------------|
      A--------2-3h5----3-------2-3h5-----3-------2-3h5----3-----3---2---0---5----------|
      E-----3--------1----1---3--------1-----1--3-------1-----1-------------------------|
      
      O que nos devem, queremos em dobro, queremos em dólar
      
      G---------------------------------------------------------------------------------|
      D---2-0h2-0h2--3-2h3—2h3---2-0h2-0h2--3-2h3—2h3--2-0h2-0h2------------------------|
      A-----------------------------------------------------------3----2-3-5----2-3-5---|
      E--------------------------------------------------------------3--------3---------|
      
      O que nos devem, queremos em dobro, queremos agora
      
      G---------------------------------------------------------------------------------|
      D---2-0h2-0h2--3-2h3—2h3---2-0h2-0h2--3-2h3—2h3--2-0h2-0h2------------------------|
      A-----------------------------------------------------------3--5-3-2-2---5-3-2-2--|
      E---------------------------------------------------------------------------------|
      
      Se te disseram pra não virar a mesa...
      
      G-----5h7h5-----------------------------------------------------------------------|
      D-----------7---------------------------------------------------------------------|
      A---0---------0-------------------------------------------------------------------|
      E---------------------------------------------------------------------------------|
      
      Ouça o que eu digo, não ouça ninguém.........nãoooo
      
      G---------------------------------------------------------------------------------|
      D---------------------------------------------------------------------------------|
      A---------------------------------------------3-2-0-5-----------------------------|
      E--1-1-1--3-----------------------------------------------------------------------|
      
      Repete a mesma seqüência do início.
      Ouça o que eu digo, não ouça ninguém.........
      Ouça o que eu digo, não ouça ninguém (repete isso várias vezes)
      
      G---------------------------------------------------------------------------------|
      D---------------------------------------------------------------------------------|
      A--------------------------------------------------------------1-1-3--1-1-3--1-1-3|
      E--1-1-1--3---------------------------------1-1-3--1-1-3-1-1-3--------------------|
      
      Entra essa parte no final (junto com a guitarra)
      
      G---------------------------------------------------------------------------------|
      D---------------------------------------------------------------------------------|
      A----3-1----------------------------3-0h3-0h3-5-0h5-0h5--3------------------------|
      E--3-----1-----3-0h3-0h3-5-0h5-0h5------------------------------------------------|
      
      Se te disseram pra não virar a mesa...
      
      G-----5h7h5-----------------------------------------------------------------------|
      D-----------7---------------------------------------------------------------------|
      A---0---------0-------------------------------------------------------------------|
      E---------------------------------------------------------------------------------|
      
      Ouça o que eu digo, não ouça ninguém Ouça o que eu digo, não ouça, não ouça
      
      G---------------------------------------------------------------------------------|
      D---------------------------------------------------------------------------------|
      A----5-3-2---5-3-2---5-3-2---5-3-2----7-5-4--7-5-4---9-7-6---9-7-6---9------------|
      E---------------------------------------------------------------------------------|
      
      Ninguém
      
      G-----------12--15---17--19-------------------------------------------------------|
      D----12--15-----------------------------------------------------------------------|
      A---------------------------------------------------------------------------------|
      E------------------------------0-2-3-3--------------------------------------------|
        Composição: Humberto GessingerColaboração e revisão:
        • Pandur

        Comentários 0

        140 .
        140 cancelar

        conseguiu tocar?

        CBJUNIOR04 - Rock Nacional no Baixo - Bass Cover4.392 visualizações
        ver covers de outras músicas »
        0:00 / 0:00

        Capítulos

          1 versão de violão dificuldade exibições contribuição e correção
          1 versão de guitarra dificuldade exibições contribuição e correção
          1 versão de cavaco dificuldade exibições contribuição e correção
          1 versão de teclado dificuldade exibições contribuição e correção
          1 versão de baixo exibições contribuição e correção
          play/pausefechar subir/descer velocidade
          6ª corda E5ª corda A4ª corda D3ª corda G2ª corda B1ª corda E
            acordes
            publicidade
            fechar
            ok