Enviar cifraEntrar

Parabólica

Engenheiros do Hawaii

Cifra: Principal
exibições 461.098
Tom: G
(intro 3x) G D

G
Ela pára
  D     Em   Bm
E fica ali parada
     C        Am
Olha-se para nada
     D
(paraná)
G       D     Em    Bm
Fica parecida paraguaia
      F7+      C     Am
Pára-raios em dia de sol
      D
Para mim
G      D         Em  Bm
Prenda minha parabólica
C     G         Am
Princesinha parabólica
B7               C
O pecado mora ao lado
A     G  D    C          G  D Em Bm C Am D/F#
O paraíso...   paira no ar
B7 C        A      G D C Am D
... pecados no paraíso ...
     Em          Bm
Se a tv estiver fora do ar
         Em
Quando passarem
               Bm
Os melhores momentos da sua vida
Am             Am7+
Pela janela alguém estará
Am7            D                   Em
De olho em você completamente paranóico
Bm               Em
Prenda minha parabólica
Bm                Am
Princesinha clarabólica
                  Bm
Paralelas que se cruzam
C     D        G
Em belém do pará
              D             Em Bm
Longe, longe, longe aqui do lado
    C    Am           D
Paradoxo: nada nos separa
    G     D      Em   Bm
Eu paro e fico aqui parado
     F7+      C
Olho-me para longe
      Am           D       G
A distância não separabólica

(dedilhado)

(intro)


E|-------------------5--5--------------------5--5--------------------5----5-----
B|--10/1210--8-10---7--7----10/1210--8-10--7--7----10/1210--8-10--7----7-----
G|-------------------7--7--------------------7--7--------------------7----7-----
D|-------------------7--7--------------------7--7--------------------7----7-----
A|-------------------5--5--------------------5--5--------------------5----5-----
E|------------------------------------------------------------------------------


E|---------2>5-3-----|--0---------------------------------------------------------
B|-0>1-3-3-------0-3-|----3-1-3-----0>1-0---3-------------------------------------
G|-0---------------4-|------------0-------2---------------------------------------
D|-------------------|----------0-------------------------------------------------
A|-----------------2-|--3-----2-------0-------------------------------------------
E|-3-----2-----0-----|--------------------2---------------------------------------

   G     D     E   B    C     B       A   D
  Ela para e fica ali parada...


E|---------2>5-3-----|--1-0-------------------------------------------------------
B|-0>1-3-3-------0-3-|--1-1-----0>1-0---3-----------------------------------------
G|-----------------4-|--------0-------2-------------------------------------------
D|-------------------|--3---2-----------------------------------------------------
A|-----------------2-|----3-------0-----------------------------------------------
E|-3-----2-----0-----|----------------2-------------------------------------------

   G     D     E   B    F C       A   D
  Fica parecida paraguaia...


E|-----------0--------------------------------------------------------------------
B|-0-3-------1-3-----0>1-0---3----------------------------------------------------
G|-0-2-0-4---------0-------2------------------------------------------------------
D|---------------0----------------------------------------------------------------
A|-------2-|-3-2-------0----------------------------------------------------------
E|-3-2-0---|---------------2------------------------------------------------------

   G D E B   C B       A   D
  Prenda minha parabolica...


E|-----------------0---2>3-3-----1-0-0-|------------------------------------------
B|-0>1-0-0-----0-1---3-------3---1-0-1-|-1-1-1-0-3--------------------------------
G|-0-----0---0-----------------0-------|-2-2-2-2-2--------------------------------
D|---------0---------0-----------3-----|------------------------------------------
A|-2-----2-------3-------------------3-|-0----------------------------------------
E|-------------------------3-----------|---------2--------------------------------

   B             C   D     G     F   C   A       D
  O pecado mora ao lado...


E|---0---2---0---2---0---0---0-3-2-0-0--------------------------------------------
B|-0-0-3-3-0-0-3-3-1-1-0-0-1-1-1-3-----3-3-1-1-0----------------------------------
G|-0---4---0---4---2---0---2------------------------------------------------------
D|-------------------------------0------------------------------------------------
A|-----2-------2---0-------0------------------------------------------------------
E|-0-------0-----------3----------------------------------------------------------

   E   B   E   B   A   G   A     D
  Se a tv estiver...


E|---0---2---0---2-----0-----0-----0-----0-|---------0-0-2-2>3--------------------
B|-0-0-3-3-0-0-3-3---1-----0-----1-----0---|-1-1-3-3-1-1-3-3----------------------
G|-0---4---0---4---2-----0-----2-----0-----|-2-2-4-4------------------------------
D|-----------------------------------------|-------------0------------------------
A|-----2-------2---0-----------0-----------|-0---2---3----------------------------
E|-0-------0-------------3-----------3-----|--------------------------------------

   E   B   E   B   A
  Prenda minha parabolica...


E|---------2>5-3-----|--0---------------------------------------------------------
B|-0>1-3-3-------0-3-|----3-1-3-----0>1-0---3-------------------------------------
G|-0---------------4-|------------0-------2---------------------------------------
D|-------------------|----------0-------------------------------------------------
A|-----------------2-|--3-----2-------0-------------------------------------------
E|-3-----2-----0-----|--------------------2---------------------------------------

   G     D     E   B    C     B       A   D
  Longe, longe, longe (aqui do lado)...


E|---------2>5-3-----|--1-0---0-----------------------3---------------------------
B|-0>1-3-3-------0-3-|--1---3-1-----1-1-0-0-----------3---------------------------
G|-----------------4-|------------0---------2-2-0-0---0---------------------------
D|-------------------|--3-------2-------------------4-0---------------------------
A|-----------------2-|--------3-------0---------------2---------------------------
E|-3-----2-----0-----|------------------------2-------3---------------------------

   G     D     E   B    F     C       A       D       G
  Eu paro e fico aqui parado...
  • 1
  • 2
  • 3
  • 4
  • 5
  • 6
  • 7
  • 8
  • 9
  • 10
  • 11
  • 12
    Acordes para:
      Composição: Augusto Licks / Humberto GessingerColaboração e revisão:
      • Cleberson
      • edu611
      • jvpereira

      0 comentários

        mostrar mais comentários

        Conseguiu tocar?

        25tocaram1ainda não

        Grave um vídeo tocando Parabólica e mande pra gente!

        00:00 / 00:00
        outros vídeos desta música
        repetirqualidadeautomática
        • automática
        Outro vídeos desta música
          00:00 / 00:00
          automática
          • automática
          Acordes para:violão e guitarra
          dificuldadeexibiçõescontribuições
          fecharplay/pause subir/descer velocidade
            acordes
            fechar
            OK
            Feedback