Cifra Club

Dançar Na Chuva

Fernandinho

Tab de baixo: Original
exibições 3.435
Intro:
G|---------------------------------------------------------------------|
D|-----------6-5-3--------------6-5-3--------------6-5-3---6-5-3-------|
A|5-5-5-5(3x)------3-5-5-5-5(3x)------3-5-5-5-5(3x)------3-------3-5---|
E|---------------------------------------------------------------------|


D
Novo caminho para andar, Novo sonho pra sonhar,

                  G
O deserto não é o meu lugar.

D
Nova vida Ele prometeu, A todo aquele que Nele crê,

                        G
O mar a nossa frente se abrirá.

D              A
Nova criatura sou,

                    B
O velho homem já morreu,

                      A
Eu vou dançar naquela terra

            G
Que Ele prometeu

   F#      E   A
Eu vou, eu vou.  (2x)


Eu vou dançar na chuva...(2x)
G|-------------------------------------------------------------------------------------------|
D|-------------------------------------------------------------------------------------------|
A|--2--2--4--5--2--2--4--5--2--2--4--5--2--2--2--2--2--2--4--5--2--2--4--5--2--2--4--5--2----|
E|-------------------------------------------------------------------------------------------|

Introdução novamente.


G|---------------------------------------------------------------------|
D|-----------6-5-3--------------6-5-3--------------6-5-3---6-5-3-------|
A|5-5-5-5(3x)------3-5-5-5-5(3x)------3-5-5-5-5(3x)------3-------3-5---|
E|---------------------------------------------------------------------|

D
Novo caminho para andar, Novo sonho pra sonhar,

                  G
O deserto não é o meu lugar.

Riff rápido.

G|----------------------|
D|5-4---4---------------|
A|----5---5---5---------|
E|----------4-----------|


D
Nova vida Ele prometeu, A todo aquele que Nele crê,

                        G
O mar a nossa frente se abrirá.

D              A
Nova criatura sou,

                    B
O velho homem já morreu,

                      A
Eu vou dançar naquela terra

            G
Que Ele prometeu

   F#      E   A
Eu vou, eu vou.  (2x)



Eu vou dançar na chuva...(2x)
G|-------------------------------------------------------------------------------------------|
D|-------------------------------------------------------------------------------------------|
A|--2--2--4--5--2--2--4--5--2--2--4--5--2--2--2--2--2--2--4--5--2--2--4--5--2--2--4--5--2----|
E|-------------------------------------------------------------------------------------------|



G|------------2-4-------------2-4-------------2-4-------------2-4--------------------|
D|----2-4-------------2-4-------------2-4-------------2-4-------------2-4------------|
A|2-2-----2-2-----2-2-----2-2-----2-2-----2-2-----2-2-----2-2-----2-2-----2/4--------|
E|-----------------------------------------------------------------------------------|


Dance, Dance, Dance....


G|4-4---4-3-3---3-2-2---2-1-1-0---4-4---4-3-3---3-2-2---2-1-1-0------|  Repete 5x
D|----4-------3-------2---------4----4-------3-------2----------4----|
A|-------------------------------------------------------------------|
E|-------------------------------------------------------------------|

Continua No Dance, Dance, Dance...

G|--------------------------------|  Repete 3x 
D|--------------------------------|
A|--------------------------------|
E|7-7-0-6-6-0-6-5-5-0-5-4-4-3-2---|

DANCE! DANCE! DANCE!

G|-----------------|
D|-----------------|
A|2-2-2-2-2--------|
E|-2-2-2-2-2-------|


G|-------------------------------------------------------------------------------------------|
D|-------------------------------------------------------------------------------------------|
A|--2--2--4--5--2--2--4--5--2--2--4--2--2--4--5--2--2--4--5--2--2--4--5(8x)-4-0-5------------|
E|-------------------------------------------------------------------------------------------|

Depois dessa parte volta em B no refrão.
Colaboração e revisão:
  • Eusébio Aguado

0 comentários

    mostrar mais comentários

    Conseguiu tocar?

    5tocaram0ainda não

    Grave um vídeo tocando Dançar Na Chuva e mande pra gente!

    00:00 / 00:00
    outros vídeos desta música
    repetirqualidadeautomática
    Outro vídeos desta música
      00:00 / 00:00
      automática
      OK