Cifra Club

Aprenda

Breakout

Foo Fighters

Cifra: Versão 6 (violão e guitarra)
Quer fazer aulas de música com a gente? Responda essas perguntas
e nos ajude nesse projeto! →
tom: C
This is my first tab,the guitar effects in the beginning are weird so i just played what 
like it.

Intro:
e|----------------------------------------------------------------|
B|-----4----------------------------------------------------------|
G|--4----4----9--9-9----6--6-6----5--5----------------------------| X3
D|--4------4--9------9--6------6--5----5--------------------------|
A|--2---------7---------4---------3------3------------------------|
E|----------------------------------------------------------------|
                                    -5-
The 4th time play intro but stop at -5-
                                    -3-
Chorus:
|-----------------------------------------------------------------|
|-----------------------------------------------------------------|
|--444444--------444444-------------------------------------------| X2
|--444444-555555-444444-222222-555555-222222-555555-222222--------|
|--222222-555555-222222-222222-555555-222222-555555-222222--------|
|---------333333--------000000-333333-000000-333333-000000--------|

Break:
|-----------------------------------------------------------------|
|-----------------------------------------------------------------|
|-----------------11-12121212121212-11-99999999-------------------| X4
|-999999999999999-x--x-x-x-x-x-x-x--x--xxxxxxxx-------------------|
|-xxxxxxxxxxxxxxx-9--10101010101010-9--77777777-------------------|
|-777777777777777-------------------------------------------------|

|---------------------------------------|
|---------------------------------------|
|-4-4-4-4-4-4-4-4-----------------------|
|-4-4-4-4-4-4-4-4-2-2-2-2-2-2-2-2-------|
|-2-2-2-2-2-2-2-2-2-2-2-2-2-2-2-2-------|
|-----------------0-0-0-0-0-0-0-0-------|

Intro (play riff 2 times instead 4)

then:
|-----------------------------------------------------------------|
|-----------------------------------------------------------------|
|-4-44444-9-99999-6-66666-5-55555---------------------------------|
|-4-44444-9-99999-6-66666-5-55555---------------------------------|
|-2-22222-7-77777-4-44444-3-33333---------------------------------|
|-----------------------------------------------------------------|

|----------------------------|
|----------------------------|
|-4-44444-9-99999-6-66666-5--|
|-4-44444-9-99999-6-66666-5--|
|-2-22222-7-77777-4-44444-3--|

Chorus X2 555555-222222-555555-222222---|play this twice while playing
          555555-222222-555555-222222---|the chorus the second time.
          333333-000000-333333-000000---|

then:
E -7-7-7-7-7-7-7-|----------------------------|
B -7-7-7-7-7-7-7-|----------------------------|
G ---------------|-4-4-4-4-------6-6-6--9-9-9-|
D ---------------|-4-4-4-4--7-7--6-6-6--9-9-9-|
A ---------------|-2-2-2-2--7-7--4-4-4--7-7-7-|
E ---------------|----------5-5---------------|

Halfway in the break,the guitar comes in with this riff
E -7-7-7-7-5-5-5-9-9-9-9-0-0-0-0-0-0-0-|
B -7-7-7-7-5-5-5-9-9-9-9-0-0-0-0-0-0-0-|
G -------------------------------------|
D -------------------------------------|
A -------------------------------------|
E -------------------------------------|


Chorus X2 555555-222222-555555-222222---|play this twice while playing
          555555-222222-555555-222222---|the chorus the second time.
          333333-000000-333333-000000---|

Outro:
|-----------------------|   |-----------------------|
|-----------------------|   |-----------------------|
|-44----66-9999---------| X3|-44----66-99-----------|
|-44-77-66-9999---------|   |-44-77-66-99-----------|
|-22-77-44-7777---------|   |-22-77-44-77-----------|
|----55-----------------|   |-----------------------|

The end,give me some good feedback.
Composição de Foo Fighters
1.549 exibições
  • Simplificar cifra
    • ½ Tom
    • A
    • Bb
    • B
    • C
    • Db
    • D
    • Eb
    • E
    • F
    • F#
    • G
    • Ab
  • Adicionar à lista

    0 comentários

    Ver todos os comentários
    00:00 / 00:00
    Outros vídeos desta música
    Repetir Qualidade Automático
    Outros vídeos desta música
    00:00 / 00:00
    Automático

    Cifra Club Pro

    Aproveite o Cifra Club com benefícios exclusivos e sem anúncios
    Cifra Club Pro
    Aproveite o Cifra Club com benefícios exclusivos e sem anúncios
    OK