Cifra Club

Aprenda

Walk

Foo Fighters

Tab de baixo: Principal
Já pensou em usar uma coleção de roupas do Cifra Club? Responda as perguntas abaixo e nos ajude nessa missão! →
Chorus 1

G -----------------------------------------------------------------|
D -7---------7-9-----7-11-12----7------------7-9-------------------|
A -----9-7----------------------------9-7------------4-5--7--8--10-|
E -----------------------------------------------------------------|

G -------------------------------------------------------------------|
D ---------------------------------s/7-7-7-7-7-7-7-7-7-7-7-7-7-7-7-7-|
A -0-0-0-0-0-0-0-0-0-0-0-0-0-0-0-0-----------------------------------|
E -------------------------------------------------------------------|

Verse 2

G -----------------------------------------------------------------|
D -----------------------------------------------------------------|
A -0-0-0-0-0-0-0-0-0-0-0-0-0-0-0-0-------------------------------0-|
E ---------------------------------0-0-0-0-0-0-0-0-0-0-0-0-0-0-0---|


G ------------------------------------------------------------------|
D ------------------------------------------------------------------|
A -2-2-2-2-2-2-2-2-2-2-2-2-2-2-----5-5-5-5-5-5-5-5-5-5-5-5-5-0-2-4--|
E -----------------------------5-0----------------------------------|

G -----------------------------------------------------------------|
D -----------------------------------------------------------------|
A -0-0-0-0-0-0-0-0-0-0-0-0-0-0-0-0-------------------------------0-|
E ---------------------------------0-0-0-0-0-0-0-0-0-0-0-0-0-0-0---|

G ---------------------------------------------------------------------|
D ---------------------------------------------------------------------|
A -2-2-2-2-2-2-2-2-2-2-2-2-2-2-----5-5-5-5-7-7-7-7-8-8-8-8-10-10-10-10-|
E -----------------------------5-0-------------------------------------|

Chorus 2

G -----------------------------------------------------------------|
D -----------------------------------------------------------------|
A -0-0-0-0-0-0-0-0-0-0-0-0-0-0-0-0-------------------------------0-|
E ---------------------------------0-0-0-0-0-0-0-0-0-0-0-0-0-0-0---|

G ---------------------------------------------------------------------|
D ---------------------------------------------------------------------|
A -2-2-2-2-2-2-2-2-2-2-2-2-2-2-----5-5-5-5-7-7-7-7-8-8-8-8-5-5-5-5-----|
E -----------------------------5-0-------------------------------------|

G -----------------------------------------------------------------|
D -----------------------------------------------------------------|
A -0-0-0-0-0-0-0-0-0-0-0-0-0-0-0-0-------------------------------0-|
E ---------------------------------0-0-0-0-0-0-0-0-0-0-0-0-0-0-0---|

G ---------------------------------------------------------------------|
D ---------------------------------------------------------------------|
A -2-2-2-2-2-2-2-2-2-2-2-2-2-2-----5-5-5-5-7-7-7-7---------------------|
E -----------------------------5-0-----------------1-1-1-1-3-3-3-3-----|

Bridge


G ------------------------------------------------------------------|
D -----------------------------------------------6-7-----7---6-7-7--|
A -0-0-0-0-0-0-0-0-0-0-0-0-0-0-0-0-0-0-0-0-0-0-0-----0-0---0--------|
E ------------------------------------------------------------------|

G ------------------------------------------------------------------|
D -----------------------------------------------6-7----------------|
A ------------------------------------------------------------------|
E -0-0-0-0-0-0-0-0-0-0-0-0-0-0-0-0-0-0-0-0-0-0-0-----0-0-2-2-4-4-5--|

G ------------------------------------------------------------------|
D ------------------------------------------------------------------|
A -------------------------------0-5-5-5-5-5-5-5-5-3-3-3-3-3-3-3-3--|
E -2-2-2-2-2-2-2-2-2-2-2-2-2-2-2------------------------------------|

G ------------------------------------------------------------------|
D -----------------------------------------------6-7-----7---6-7-7--|
A -0-0-0-0-0-0-0-0-0-0-0-0-0-0-0-0-0-0-0-0-0-0-0-----0-0---0--------|
E ------------------------------------------------------------------|

G ------------------------------------------------------------------|
D -----------------------------------------------6-7----------------|
A ------------------------------------------------------------------|
E -0-0-0-0-0-0-0-0-0-0-0-0-0-0-0-0-0-0-0-0-0-0-0-----0-0-2-2-4-4-5--|

G ------------------------------------------------------------------|
D ------------------------------------------------------------------|
A -------------------------------0-5-5-5-5-5-5-5-5-4h5-0h2-4h5-0h2--|
E -2-2-2-2-2-2-2-2-2-2-2-2-2-2-2------------------------------------|

G ------------------------------------------------------------------|
D -----------------------------------------------6-7-----7---6-7-7--|
A -0-0-0-0-0-0-0-0-0-0-0-0-0-0-0-0-0-0-0-0-0-0-0-----0-0---0--------|
E ------------------------------------------------------------------|

G ------------------------------------------------------------------|
D -----------------------------------------------6-7----------------|
A ------------------------------------------------------------------|
E -0-0-0-0-0-0-0-0-0-0-0-0-0-0-0-0-0-0-0-0-0-0-0-----0-0-2-2-4-4-5--|

G ------------------------------------------------------------------|
D ------------------------------------------------------------------|
A -------------------------------0-5-5-5-5-5-5-5-5-3-3-3-3-3-3-3-3--|
E -2-2-2-2-2-2-2-2-2-2-2-2-2-2-2------------------------------------|

Final Chorus

G ------------------------------------------------------------------|
D ------------------------------------------------------------------|
A -0-----------------0---0--0---------------------------------------|
E -------------------------------0-0-0-0-0-0-0-0-0-0-0-0-0-4-0------|

G ---------------------------------------------------------------------|
D ---------------------------------------------------------------------|
A -2-2-2-2-2-2-2-2-2-2-2-2-2-2-----5-5-5-5-7-7-7-7---------------------|
E -----------------------------5-0-----------------1-1-1-1-3-3-3-3-----|


G -----------------------------------------------------------------|
D -----------------------------------------------------------------|
A -0-0-0-0-0-0-0-0-0-0-0-0-0-0-0-0---------------------------------|
E ---------------------------------0-0-0-0-0-0-0-0-0-0-0-0-0-0-4-0-|

G ---------------------------------------------------------------------|
D ---------------------------------------------------------------------|
A -2-2-2-2-2-2-2-2-2-2-2-2-2-2-----5-5-5-5-7-7-7-7---------------------|
E -----------------------------5-0-----------------1-1-1-1-3-3-3-3-----|

G -----------------------------------------------------------------|
D -----------------------------------------------------------------|
A -0-0-0-0-0-0-0-0-0-0-0-0-0-2-0---------------------------------0-|
E -------------------------------2-0-0-0-0-0-0-0-0-0-0-0-0-0-2-0---|

G ---------------------------------------------------------------------|
D ---------------------------------------------------------------------|
A -2-2-2-2-2-2-2-2-2-2-2-2-2-2-----5-5-5-5-7-7-7-7---------------------|
E -----------------------------5-0-----------------1-1-1-1-3-3-3-3-----|

G -----------------------------------------------------------------|
D -----------------------------------------------------------------|
A -0-0-0-0-0-0-0-0-0-0-0-0-0-2-0---------------------------------0-|
E -------------------------------2-0-0-0-0-0-0-0-0-0-0-0-0-0-2-0---|

G ---------------------------------------------------------------------|
D ---------------------------------------------------------------------|
A -2-2-2-2-2-2-2-2-2-2-2-2-2-2-----5-5-5-5-3-3-3-3---------------------|
E -----------------------------5-0-----------------1-1-1-1-3-3-3-3-----|

G ----------------------------------------|
D ----------------------------------------|
A -5-5-5-5-3-3-3-3-8-8-8-8-10-10-10-10----|
E ----------------------------------------|

G ---------------------------------------------------------------------|
D ---------------------------------s/7-7-7-7-7-7-7-7-7-7-7-7-7-7-7-7---|
A -0-0-0-0-0-0-0-0-0-0-0-0-0-0-0-0-----------------------------------0-|
E ---------------------------------------------------------------------|
Composição de Foo Fighters
Colaboração e revisão:
  • Allan Bastos
6.814 exibições

0 comentários

Ver todos os comentários
00:00 / 00:00
Outros vídeos desta música
Repetir Qualidade Automático
Outros vídeos desta música
00:00 / 00:00
Automático

Cifra Club Pro

Aproveite o Cifra Club com benefícios exclusivos e sem anúncios
Cifra Club Pro
Aproveite o Cifra Club com benefícios exclusivos e sem anúncios
OK