Cifra Club

Aprenda

Restless Heart Syndrome

Green Day

Cifra: Principal (violão e guitarra)
Tom: F
(intro) Gm C F Bb Eb G# D

(verso 1)
Gm           F            C   Eb
  I've got a really bad disease
Gm            F             C           Eb
  It's got me begging on my hands and knees
   Gm      F   C      Eb
So take me to emergency
Gm                F              C  Eb
  Cause something seems to be missing

(verso 2)
Gm         F              C  Eb
  Somebody take the pain away
Gm             F              C       Eb
  It's like an ulcer bleeding in my brain
   Gm      F      C    Eb
So send me to the pharmacy
Gm         F          C  Eb
  So I can lose my memory

(pré-refrão)
Cm      Bb    Cm     Bb
   I'm elated Medicated
Cm              Bb
   Lord knows I tried to
       F   G#        D
find a way   to run away

(verso 3)
Gm             F             C   Eb
  I think they found another cure
Gm           F                  C    Eb
  For broken hearts and feeling insecure
      Gm    F           C    Eb
You'd be surprised what I endure
Gm               F              C    Eb
  What makes you feel so self-assured?

(verso 4)
Gm           F               C   Eb
   I need to find a place to hide
Gm           F
   You never know what
        C         Eb
could be waiting outside
    Gm  F         C       Eb
The accidents that you could find
Gm               F         C   Eb
  It's like some kind of suicide

(pré-refrão)
Cm         Bb
   So what ails you
Cm        Bb
   is what impales you
Cm             Bb
   I feel like I've been
     F   G#           D
crucified  to be satisfied

(refrão)
Gm             Gm/F
  I'm a victim  of my symptom
Em7/5        Cm          F   D
    I am my own worst enemy
Gm                Gm/F
  You're a victim   of your symptom
Em7/5             Cm
   You are your own
         F    D(hold)
worst enemy Know your enemy

(base do solo) G5 F5 C5 Eb5

(solo)
E|--------------------------|-----------------------------------
B|--------------------------|-----------------------------------
G|--------------------------|-----------------------------------
D|---5--8-5-7--8-5----------|--5-8-5-7--8-10-10-8-7-8-7-3-------
A|--------------------------|-----------------------------------
E|--------------------------|-----------------------------------

E|--------------------------|-----------------------------------
B|--------------------------|-----------------------------------
G|--------------------------|-----------------------------------
D|---5--8-5-7--8-5----------|--5-8-5-7--8-10-10b--12------------
A|--------------------------|-----------------------------------
E|--------------------------|-----------------------------------

(refrão)
G5
  I'm elated
F5
  Medicated
Em7/5    C5           F5  D5
 I am my own worst enemy
G5                 F5
  So what ails you   is what impales you
Em7/5         C5           F5  D5
 You are your own worst enemy
G5             F5            Em7/5
You're a victim of the system
             C5           F5  D5
You are your own worst enemy
G5             F5            Em7/5
You're a victim of the system
             C5           F5  D5
You are your own worst enemy

(outro)  G5 4x G5 4x Eb5 4x  Eb5 2x Eb5 2x

E|-----------|-----------|-------|-----|----|
B|-----------|-----------|-------|-----|----|
G|12-12-12-12|12-12-12-12|8-8-8-8|--8--|-8-7|
D|x--x--x--x-|x--x--x--x-|x-x-x-x|--x--|-x-x|
A|10-10-10-10|10-10-10-10|6-6-6-6|--6--|-6-5|
E|-----------|-----------|-------|-----|----|

(repete 4x e finaliza assim)

 G5 (5x)  na quinta vez - slide
E|---------------------------|
B|---------------------------|
G|12-12-12-12-12/------------|
D|x--x--x--x--x/-------------|
A|10-10-10-10-10/------------|
E|---------------------------|
Composição de Billie Joe Armstrong / Green Day
Colaboração e revisão:
  • Jhones santos
8.504 exibições
    • ½ Tom
    • A
    • Bb
    • B
    • C
    • Db
    • D
    • Eb
    • E
    • F
    • F#
    • G
    • Ab
  • Adicionar à lista

    0 comentários

    Mostrar mais comentários

    Conseguiu tocar?

    8 Tocaram 0 Ainda não

    Grave um vídeo tocando Restless Heart Syndrome e mande pra gente!

    00:00 / 00:00
    outros vídeos desta música
    repetir qualidade Automático
    Outros vídeos desta música
    00:00 / 00:00
    Automático

    Cifra Club Pro

    Aproveite o Cifra Club com benefícios exclusivos e sem anúncios
    7 dias grátis
    Cifra Club Pro
    Aproveite o Cifra Club com benefícios exclusivos e sem anúncios
    7 dias grátis
    OK