Notificações Amigos pendentes

      Guns N' Roses

      Patience

      42.040 exibições
      Tom: G
      
         C                                 G
      |------0---0-----|----------------|----------------|----------------|
      |------1---1-1-1-|3p1-1-0h1-1-1p0-|------0---------|1p0-------------|
      |----0-------0-0-|0---0-0---0-0---|----0-----0-----|----0-2p0---0h2-|
      |2-2---------2-2-|2---2-2---2-2---|--0---------0---|----------0-0h2-|
      |3-----------3-3-|3---3-3---3-3---|2-------------2-|----------------|
      |----------------|----------------|----------------|----------------|
      
      
         Av                                D
      |----------------|----------------|2---2---2-2-----|3p2-2-0---2-----|
      |----2---------0-|3p2---0h2-2-----|3-3---3-----3-3-|3---3-3---3-----|
      |------2---2-----|----2-0h2-2-2-0-|2-------------2-|2---2-2---2-----|
      |--------2---2---|----2-------2-0-|0-------------0-|0---0-0---0-----|
      |0---------------|----------------|----------------|------------0-2-|
      |----------------|----------------|----------------|----------------|
      |                                                                   |
      |----------------|----------------|----------------|----------------|
      |----------------|----------------|----------------|----------------|
      |----------------|----------------|----------------|------------7---|
      |----------------|----------------|----------------|----------------|
      |----------------|----------------|----------------|----------------|
      |----------------|----------------|----------------|----------------|
      
      
         C                                 G
      |------0---0-----|----------------|----------------|----------------|
      |------1---1-1-1-|3p1-1-0h1-1-1p0-|------0---------|1p0-------------|
      |----0-------0-0-|0---0-0---0-0---|----0-----0-----|----0-2p0---0h2-|
      |2-2---------2-2-|2---2-2---2-2---|--0---------0---|----------0-0h2-|
      |3-----------3-3-|3---3-3---3-3---|2-------------2-|----------------|
      |----------------|----------------|----------------|----------------|
      
      |                                                                   |
      |----------------|----10----------|--7-8-9-10------|----------------|
      |8-------------8-|1012--10--8-108-|10^-------10^-8-|------------10--|
      |----------------|------**--------|----------------|--------------9-|
      |----------------|----------------|----------------|----------------|
      |----------------|----------------|----------------|----------------|
      |----------------|----------------|----------------|----------------|
      
          Av                                D
      |----------------|----------------|2---2---2-2-----|3p2-2-0---2-----|
      |----2---------0-|3p2---0h2-2-----|3-3---3-----3-3-|3---3-3---3-----|
      |------2---2-----|----2-0h2-2-2-0-|2-------------2-|2---2-2---2-----|
      |--------2---2---|----2-------2-0-|0-------------0-|0---0-0---0-----|
      |0---------------|----------------|----------------|------------0-2-|
      |----------------|----------------|----------------|----------------|
      |                                                                   |
      |------------7s8s|9---------------|--10----8-----7-|----7s5---------|
      |10--------------|----------------|----------------|8---------------|
      |------------7s8s|9---------------|11----9-----7---|--7--s5---------|
      |----------------|----------------|----------------|----------------|
      |----------------|----------------|----------------|----------------|
      |----------------|----------------|----------------|----------------|
      
      
          C           G6   G               C            G6   Em           G6
      |------0---------|----------------|----------------|----------------|
      |----1---3p1-----|----------------|------1---------|----------------|
      |--0-----------0-|------0---------|----0---0-------|------0---------|
      |2-----------2---|----0-----0-----|--2-------2-----|----2-----------|
      |3---------------|--2---------2---|3---------------|--2-------------|
      |----------------|3-------------3-|------------3-2-|0---------------|
      
      
          C           G6   G          G6   D
      |----------------|----------------|------2---------|----------------|
      |------1---------|--------0-------|3---------------|----------------|
      |----0---0-------|------0---0-----|2---------------|----------------|
      |--2-------2-----|----0-------0---|0---------------|----------------|
      |3-----------3-2-|2-2-------------|----------------|----------------|
      |----------------|3---------------|----------------|----------------|
      
      
            Shed a tear...
      |----------------|----------------|----------------|----------------|
      |------1---1-1-1-|3p1---0---1-----|----------------|----------------|
      |----0-----0-0-0-|0-----------0---|----------------|--------0-----0-|
      |--2-------2-2-2-|2---------------|----------------|----0-----0-2-0-|
      |3---------3-3-3-|3---3---------3-|2-------2-0-----|----2-0---------|
      |----------------|----------------|----------------|3---------------|
      |                                                                   |
      |----------------|----------------|----------------|----------------|
      |------1---------|3-1---1---------|----------------|----------------|
      |----0-----------|----0---0-------|------0---------|------0---------|
      |--2-------------|----------2-----|----0-----------|----0---0-----0-|
      |3---------------|------------3-0-|2---------0-----|--2-------2-----|
      |----------------|----------------|--------------3-|3-----------3---|
      
      |--------5-------|----------------|----------------|----------------|
      |------2---------|3p2---0---2-----|----------------|----------------|
      |----2-----------|----------------|----------------|--2---2-4-2-----|
      |2---------------|----2-----------|0-------------0s|4-----------4---|
      |0---------------|----------0-3-4-|----------------|--------------0-|
      |----------------|----------------|----------------|----------------|
      |                                                                   |
      |------5---------|5-----5---------|------0-2-------|3-2-----0-2-----|
      |----5---5-------|5-------5-------|----3-----------|----------------|
      |--6-------------|7---------------|----------------|----------------|
      |7-----------7---|----------------|0-------------0-|----------------|
      |----------------|----------0-3-4-|----------------|----------------|
      |----------------|----------------|----------------|----------------|
      
          Was a time...
      |----------------|----------------|----------------|----------------|
      |------1---1-1-1-|3p1---0---1-----|----------------|----------------|
      |----0-----0-0-0-|0-----------0---|----------------|--------0-----0-|
      |--2-------2-2-2-|2---------------|----------------|----0-----0-2-0-|
      |3---------3-3-3-|3---3---------3-|2-------2-0-----|----2-0---------|
      |----------------|----------------|----------------|3---------------|
      |                                                                   |
      |----------------|----------------|----------------|----------------|
      |------1---------|3-1---1---------|----------------|----------------|
      |----0-----------|----0---0-------|------0---------|------0---------|
      |--2-------------|----------2-----|----0-----------|----0---0-----0-|
      |3---------------|------------3-0-|2---------0-----|--2-------2-----|
      |----------------|----------------|--------------3-|3-----------3---|
      
      |--------5-------|----------------|------0-2-------|3-2---0-0-2-----|
      |------2---------|3p2---0---2-----|----3-----3-----|------3-3-3---0-|
      |----2-----------|----------------|------------2---|--------2-2-2---|
      |2---------------|----2-----------|0-------------0-|----------------|
      |0---------------|----------0-3-4-|----------------|----------------|
      |----------------|----------------|----------------|----------------|
      |                                                                   |
      |------5---------|5-----5---------|----2---2-------|----------------|
      |----5---5-------|5-------5-------|------3---3-----|3-----3---3-3-0-|
      |--6-------------|7---------------|------------2-0-|----------2-2-0-|
      |7-----------7---|----------------|0---------------|----------0-0-0-|
      |----------------|----------0-3-4-|----------------|----------------|
      |----------------|----------------|----------------|----------------|
      
      (chorus)
          Said woman, take it slow...
      
         C9           G6   G           G6   C           G6   Em          G6
      |----------------|--------3-------|----------------|------0---------|
      |1-------1-------|3-3-0-0---3---0-|----1-----------|----0---0-------|
      |0-------0-------|0-----------0---|0---0-----------|----------0---0-|
      |2-------2-------|0---------------|2---2-----------|--2---------2---|
      |3-------3-------|2---------------|3---3-----------|----------------|
      |----------------|3---------------|------------3-2-|0---------------|
      
      
         C            G6   G              /----- Same as tabbed guitar -----
      |------0---------|----------------|2---2---0-2---3-|--2---0---2-----|
      |------1---1-1-0-|--------------0-|3---3(3)3-3---3-|3-3-3-3-3-3-3-0-|
      |--0---0---0-0-0-|0-----0-------0-|2---2(2)2-2---2-|2-2-2-2-2-2-2-0-|
      |2---2-----2-2-0-|0---0-----0---0-|0---0(0)0-0---0-|0-0-0-0-0-0-0-0-|
      |3---3-----3-3---|2-----------2---|----------------|----------------|
      |----------------|3---------------|----------------|----------------|
      
      
         C9           G6   G           G6   C           G6   Em          G6
      |----------------|--------3-------|----------------|------0---------|
      |1-------1-------|3-3-0-0---3---0-|----1-----------|----0---0-------|
      |0-------0-------|0-----------0---|0---0-----------|----------0---0-|
      |2-------2-------|0---------------|2---2-----------|--2---------2---|
      |3-------3-------|2---------------|3---3-----------|----------------|
      |----------------|3---------------|------------3-2-|0---------------|
      
                                        (figure 1)            (end Figure 1)
      
         C            G6   G               D
      |------0---------|----------------|2---2---0-2---3-|--2---0---2---22|
      |------1---1-1-0-|--------------0-|3---3(3)3-3-3-3-|3-3-3-3-3-3-3-33|
      |--0---0---0-0-0-|0-----0-------0-|2---2(2)2-2-2-2-|2-2-2-2-2-2-2-22|
      |2---2-----2-2-0-|0---0-----0---0-|0---0(0)0-0-0-0-|0-0-0-0-0-0-0-00|
      |3---3-----3-3---|2-----------2---|----------------|----------------|
      |----------------|3---------------|----------------|----------------|
      
      
      |2---------------|----------------|----10----------|----------------|
      |3---------------|--------------5s|10--------------|----------------|
      |2---------------|--------------6s|11--------------|--------------7s|
      |0---------------|--------------7s|12--------------|----------------|
      |----------------|----------------|----------------|----------------|
      |----------------|----------------|----------------|----------------|
      |                                                                   |
      |2---2---0-2---3-|--2---0---2---22|2---2---0-2---3-|--2---0---2---22|
      |3---3(3)3-3-3-3-|3-3-3-3-3-3-3-33|3---3(3)3-3-3-3-|3-3-3-3-3-3-3-33|
      |2---2(2)2-2-2-2-|2-2-2-2-2-2-2-22|2---2(2)2-2-2-2-|2-2-2-2-2-2-2-22|
      |0---0(0)0-0-0-0-|0-0-0-0-0-0-0-00|0---0(0)0-0-0-0-|0-0-0-0-0-0-0-00|
      |----------------|----------------|----------------|----------------|
      |----------------|----------------|----------------|----------------|
      
      | 1.
      |----14--------14|----14--14--14-|
      |----------------|--14--14--14----|
      |14--------14----|----------------|
      |----------------|----------------|
      |----------------|----------------|
      |----------------|----------------|
      |                                 | (go back to play Verse 2)
      |2---2---0-2---3-|--2---0---2-----|
      |3---3(3)3-3-3-3-|3-3-3-3-3-3-----|
      |2---2(2)2-2-2-2-|2-2-2-2-2-2-----|
      |0---0(0)0-0-0-0-|0-0-0-0-0-0-----|
      |----------------|------------0-2-|
      |----------------|----------------|
      
      | 2.
      |----14--------14|---------8p7-8--|8s10-8----------|---------8p7-8--|
      |----------------|----------------|------10/12-8-8-|----------------|
      |14--------14----|----------------|---------**-----|----------------|
      |----------------|----------------|----------------|----------------|
      |----------------|----------------|----------------|----------------|
      |----------------|----------------|----------------|----------------|
      |                                                                   |
      |2---2---0-2---3-|--2-----------00|----------------|----------------|
      |3---3(3)3-3-3-3-|3-3-3-0-0-3-3-11|----------------|----------------|
      |2---2(2)2-2-2-2-|2-2-2-0-0-2-2-00|With chorus backing chords-------|
      |0---0(0)0-0-0-0-|0-0-0-0-0-0-0-22|----------------|----------------|
      |----------------|--------------33|----------------|----------------|
      |----------------|----------------|----------------|----------------|
      
      
      |---8s10-7-10/12-|---------8p7-8--|----8s10-8------|---10/12-10-10--|
      |----------------|----------------|-----------10/12|8-8-------------|
      |----------------|----------------|----------------|----------------|
      |----------------|----------------|----------------|----------------|
      |----------------|----------------|----------------|----------------|
      |12/14-12-10-10--|----------------|----------------|----------------|
      |----------------|---5-8----------|----------------|----------------|
      |----------------|7^----7^r-5-----|---4-7----------|----------------|
      |----------------|----------------|7^-----7^r-5----|----------------|
      |----------------|----------------|----------------|----------------|
      |----------------|----------------|----------------|----------------|
      
      
      |                                                                   |
      
      |----------------|----------------|----------------|----------------|
      |----------------|----------------|----------------|----------------|
      |-With-Figure-1--|----------------|-With-chorus-backing-chords------|
      |----------------|----------------|----------------|----------------|
      |----------------|----------------|----------------|----------------|
      |----------------|----------------|----------------|----------------|
      
      
      |----------------|----------------|----------------|----------------|
      |----5-8---------|--8-10^8----8-10|10^-r-8-10--8-10^--8-10--8-108-12|
      |7^------7^r-5-7s|9-------9-------|----------9-----|------9-------**|
      |----------------|----------------|----------------|----------------|
      |----------------|----------------|----------------|----------------|
      |----------------|----------------|----------------|----------------|
      |                                                                   |
      |----------------|----------------|----------------|----------------|
      |----------------|----------------|----------------|----------------|
      |----------------|----------------|----------------|----------------|
      |----------------|----------------|----------------|----------------|
      |----------------|----------------|----------------|----------------|
      |----------------|----------------|----------------|----------------|
      
      |----------------|----------------|----------------|----------------|
      |--10-10---------|----------------|5---3-------4p2-|----2---------7^|
      |----------------|----------------|**--------------|3h4---0---------|
      |----------------|----------------|----------------|----------------|
      |----------------|----------------|----------------|----------------|
      |----------------|----------------|----------------|----------------|
      |                                                                   |
      |----------------|----------------|----------------|----------------|
      |----------------|----------------|----------------|----------------|
      |--With-Figure-1-(3-times)--------|----------------|----------------|
      |----------------|----------------|----------------|----------------|
      |----------------|----------------|----------------|----------------|
      |----------------|----------------|----------------|----------------|
      
      |----------------|----------------|----------------|----------------|
      |----7-----------|-------***----7^|--7-----5-7---3-|----------3-----|
      |----------------|4p2-----5-------|----------------|--2---0---2-----|
      |----------------|----3h4-0-------|----------------|------0---0-----|
      |----------------|----------------|----------------|----------------|
      |----------------|----------------|----------------|----------------|
      |                                                                   |
      |----------------|----------------|2---2---0-2---3-|3-2---0---------|
      |----------------|----------------|3---3(3)3-3-3-3-|3-3---3---3-----|
      |----------------|----------------|2---2(2)2-2-2-2-|2-2---2---2-----|
      |----------------|----------------|0---0(0)0-0-0-0-|0-0---0---0-----|
      |----------------|----------------|----------------|----------------|
      |----------------|----------------|----------------|----------------|
      
      
       /---------------------------------------------------------------------
      
      / For the last part of the song use the following figures: (Chords)
      |                                                                       |
      | |-2--2---2---2-2-|-------3-33-3333|                                   |
      | |-3--3---3---3-30|3-333-33-33-3333|                                   |
      | |-2--2---2---2-20|0-000-00-00-0000| Figure 2                          |
      | |-0--0---0---0-00|0-000-00-00-0000|                                   |
      | |-0-------------0|2---2-22-22-2222|                                   |
      | |----2-0-2---2-20|3---3-33-33-3333|

      Comentários 3

      140 .
      • fabriciopereirabarreto fabriciopereirabarreto: Em 28/01/2014 19:37

        Muito boa para tocar! Valeu!

      • willianbarjona willianbarjona: Em 12/09/2013 08:38

        parabéns, aprendi e aprendo cada dia mais com vcs, belo trabalho... qero um dia chegar a executar essa música assim.... abraço

      • icaromaggi icaromaggi: Em 02/05/2011 18:36

        poco facil!

      140 cancelar
      0:00 / 0:00
      Esta versão de cifra não é usada na videoaula. Exiba a cifra correta.
      2 versões de baixo exibições contribuição e correção
      1 versão de bateria exibições contribuição e correção
      2 versões de gaita exibições contribuição e correção
      3 versões de Guitar Proformatodownloadscontribuição
      3 versões de partiturasformatodownloadscontribuição
      play/pausefechar subir/descer velocidade
      6ª corda E5ª corda A4ª corda D3ª corda G2ª corda B1ª corda E
        acordes
        publicidade
        fechar
        ok