Cifra Club

Aprenda

Patience

Guns N' Roses

Tab de baixo: Principal
 intr.    verso            riff A
|-----|--------------|-------2-2-4-2-------|
|-----|--------------|-0-2/4---------4-0---|
|-0-2-|3-----------5-|-------------------3-|
|-----|---3--3-4-5---|---------------------|

             Refrão 1
|-------------------------------------------|
|-------------------------------------------|
|--3-3-3-------3-3-----------3-3-3-------5~-|
|--------3-3-3-----3-2-0-0-0-------3-3-3----|

     riff B        Refrão 2
|--9-10-11\7-|-------------------|
|------------|-------------------|
|------------|-5-5---------------|
|------------|-----0-2-2--3-3----|

          final
...yeah but I need you
|-----------------------------|
|-----------------------------|
|------------3-3--3--------5~~|
|--2-2-3-3h5--------3-3--3----|


Intr......(x1)
verso.....(x1)
riff A....(x1)
verso.....(x1)
Refrão 1..(x2)
verso.....(x1)
riff A....(x1)
verso.....(x1)
Refrão 1..(x2)
riff B....(x1)
Refrão 2..(x8)
final.....(x1)

Composição de Axl Rose / Duff McKagan / Izzy Stradlin / Slash / Steven Adler
Colaboração e revisão:
  • Lucas Moreira
63.588 exibições

0 comentários

Ver todos os comentários
00:00 / 00:00
Outros vídeos desta música
Repetir Qualidade Automático
Outros vídeos desta música
00:00 / 00:00
Automático

Cifra Club Pro

Aproveite o Cifra Club com benefícios exclusivos e sem anúncios
Cifra Club Pro
Aproveite o Cifra Club com benefícios exclusivos e sem anúncios
OK