Cifra Club

Aprenda

Transylvania

Iced Earth

Tab de baixo: Principal
E ----------|---------|---------|---------|---------|---------|-----------|
A ----------|---------|---------|---------|---------|---------|-----------|
D --4-------|-----2-7-|-4-------|-----2-7-|-4-------|-----2-7-|-4---------|
G ----------|---------|---------|---------|---------|---------|-----------|

---------|--------|---------|--------|---------|--------|---------|---------|
---------|--------|-------4-|--------|-------4-|--------|-------4-|---------|
-----2-7-|-6------|-----4---|-6------|-----4---|-6------|-----4---|-6-------|
---------|--------|---------|--------|---------|--------|---------|---------|

----------|------------------------------|-----------------------------|
----------|------------------------------|-----------------------------|
------2-4-|-6-6-6--6--9-8--6-6-6--6--9-8-|-4-4-4--4---4--6-6-6--6-9-8--|
----------|------------------------------|----------6------------------|
                          
------------------------------|------------------------6------|
------------------------------|-----------------8-8-8----8-6--|
-6-6-6--6-9-8--6-6-6--6-9-8---|-4-4-4--4---4--6---------------|
------------------------------|----------6--------------------|

--------------------------------|--------------------------------|
--------------------------------|--------------------------------|
-1-1-1-1--1-4-3--1-1-1-1--1-4-3-|-0-0-0-0--0------1-1-1-1--1-4-3-|
--------------------------------|------------2-5-----------------|

--------------------------------|---------------------------------|
--------------------------------|---------------------------------|
-1-1-1-1--1-4-3--1-1-1-1--1-4-3-|-0-0-0-0--0-----------------9-8--|
--------------------------------|------------2-5--6-6-6-6--6------|

||-----------------------------------|---------------------------------|
||-----------------------------------|---------------------------------|
||-6-6-6-6--6-9-8--6-6-6-6--6-9-8----|-4-4-4-4--4---4--6-6-6-6--6-9-8--|
||-----------------------------------|------------6--------------------|

----------------------------------|--------------------------6------|
----------------------------------|-------------------8-8-8----8-6--|
-6-6-6-6--6-9-8--6-6-6-6--6-9-8---|-4-4-4-4--4---4--6---------------|
----------------------------------|------------6--------------------|

--------------------------------|--------------------------------|
--------------------------------|--------------------------------|
-1-1-1-1--1-4-3--1-1-1-1--1-4-3-|-0-0-0-0--0------1-1-1-1--1-4-3-|
--------------------------------|------------2-5-----------------|

--------------------------------|--------------------------------|
--------------------------------|--------------------------------|
-1-1-1-1--1-4-3--1-1-1-1--1-4-3-|-0-0-0-0--0------1-1-1-1--1-----|
--------------------------------|------------2-5-------------2-5-|

-----------------|-------------|-------------|-------------|--------------|
-----------------|-----1-1-1-1-|-----4-4-4-4-|-----1-1-1-1-|-----4-4-4-4--|
-6-4--9-9-9-9----|-2-4---------|-6-4---------|-2-4---------|-6-4----------|
-----------------|-------------|-------------|-------------|--------------|

--------------|-------------|  ---------||   
-----1-1-1-1--|-----4-4-4-4-|  --------.||
-2-4----------|-6-4---------|  -2--4---.|| 
--------------|-------------|  ---------||

----------|---------|---------|---------|---------|---------|-----------|
----------|-------4-|---------|-------4-|---------|-------4-|-----------|
--6-------|-----4---|-6-------|-----4---|-6-------|-----4---|-6---------|
----------|---------|---------|---------|---------|---------|-----------|

---------|-----------|---------------|---------------|-----------------|
---------|-----------|-------6-8-6---|---------------|---------4-6-4---|
-----2-4-|-6-6-6-6-6-|-6-6-6-------4-|-4-4-4-4-4-4-4-|-4-4-4-4-------2-|
---------|-----------|---------------|---------------|-----------------|

---------------|---------------|-------6-8-8-8-8-8-6----|------------------|
-------2-4-2---|-------4-6-4---|---6-8---------------8--|------------------|
-2-2-2-------4-|-4-4-4-------6-|-6----------------------|-6-6-6-6-6-6-6-6--|
---------------|---------------|------------------------|------------------|

-----------------|---------------|---6-4-----------|---------------|
---------4-6-8---|-------------6-|-6-----6-4-------|-------1-2-4---|
-6-6-6-6-------4-|-4-4-4-4-4-4---|-----------6-4-2-|-2-2-2-------4-|
-----------------|---------------|-----------------|---------------|

---------------|-----------8-6---|--------------------|-----------------|
-------3-4-6---|-------6-8-----6-|-8-6----------------|-----------------|
-4-4-4-------6-|-6-6-6-----------|-----9-8-9-8----6---|-6-6-6-6-6-6-6-6-|
---------------|-----------------|---------------9----|-----------------|

-----------------|---------------6-|-4---------------|---------------|
---------4-6-8---|-----------------|---6-4---4-------|-------1-2-4---|
-6-6-6-6-------4-|-4-4-4-4-4-4-4---|-------6---6-4-2-|-2-2-2-------4-|
-----------------|-----------------|-----------------|---------------|

-----------------|-----------------|---------------------------------|
---------3-4-6---|-----------------|---------------------------------|
-4-4-4-4-------6-|-6-6-6-6-6-6-6-6-|-6-6-6-6-6-6-6-6-6-6-6-6-6-6-6-6-|
-----------------|-----------------|---------------------------------|
  
------------|-----------------|-----------------|-----------------|
------------|---------4-6-8---|-----------------|---------3-4-6---|
-6---6---6--|-----6-6-------4-|-4-4-4-4-4-4-4-4-|-4-4-4-4-------2-|
------------|-----------------|-----------------|-----------------|

---------------|-----------------|-----------------|-----------------|
-------1-2-4---|---------3-4-6---|-----------------|-----------------|
-2-2-2-------4-|-4-4-4-4-------6-|-6-6-6-6-6-6-6-6-|-6-6-6-6-6-4---6-|
---------------|-----------------|-----------------|-------------6---|

-----------------|---------------|---------------4-|-4---------------|
-----------------|---------4-6-8-|-----------------|---6-4---4-------|
-6-6-6-6-6-6-6-6-|-6-6-6-6-------|-4-4-4-4-4-4-4---|-------6---6-4-2-|
-----------------|---------------|-----------------|-----------------|

-----------------|-----------------|---------------------|-------|-------|
---------1-2-4---|---------3-4-6---|---------------------|-------|-------|
-2-2-2-2-------4-|-4-4-4-4-------6-|-6-6-6-6-6-6-6-6-6-6-|-6-----|-------|
-----------------|-----------------|---------------------|-------|-------|

-------|-------|-------|-------|-------|-------------------------------|
-------|-------|-------|-------|-------|-------------------------------|
-4-----|-------|-5-----|-4-----|-6-----|-6-6-6-6-6-6-6-6-6-6-6-6-6-6-6-|
-------|-------|-------|-------|-------|-------------------------------|

-----------------|---------------|-----------------|-6-4------------|
-----------------|-------4-8-6---|---------------6-|-----6-4--------|
-6-6-6-6-6-6-6-6-|-6-6-6-------4-|-4-4-4-4-4-4-4---|---------6-4--2-|
-----------------|---------------|-----------------|----------------|

---------------|---------------|-------6-8-8-8-8-8-6----|------------------|
-------1-4-2---|-------3-4-6---|---6-8---------------8--|------------------|
-2-2-2-------4-|-4-4-4-------6-|-6----------------------|-6-6-6-6-6-6-6-6--|
---------------|---------------|------------------------|------------------|

-----------------|-----------------|-----------------|---------------|
---------4-6-8---|-----------------|---------3-4-6---|-------1-2-4---|
-6-6-6-6-------4-|-4-4-4-4-4-4-4-4-|-4-4-4-4-------2-|-2-2-2-------4-|
-----------------|-----------------|-----------------|---------------|

-----------------|-----------------|-----------------|
---------3-4-6---|-----------------|-----------------|
-4-4-4-4-------6-|-6-6-6-6-6-6-6-6-|-6-6-6-6-6-6-6-4-|
-----------------|-----------------|-----------------|
 
------------|-----------------|---------------6-|-6-4------------|
------------|---------4-6-8---|-----------------|-----6-4--------|
-6---6---6--|-----6-6-------4-|-4-4-4-4-4-4-4---|---------6-4--2-|
------------|-----------------|-----------------|----------------|

--------------|---------------|-----------------------|-----------------------|
------1-4-2---|-------3-4-6---|-----------------------|-6-11-13-13-13-13-13-13|
2-2-2-------4-|-4-4-4-------6-|-6-6-6-6-6-6-6-6-6-6-6-|-----------------------|
--------------|---------------|-----------------------|-----------------------|  

--------------------|--------------------------|--------------------|
-13-13-13-11--------|--11-11-11-11-11-11-11-11-|-11-11-11-9---------|
-------------13-----|--------------------------|-------------11-----|
--------------------|--------------------------|--------------------|

---------------------|--------------------|-------------------------|
--9-9-9--7-----------|-11-11-11-9---------|-13-13-13-13-13-13-13-13-|
-------------9-------|-------------11-----|-------------------------|
---------------------|--------------------|-------------------------|

----------------------|------------------------|-------------------|
-13-13-13-13-11-------|---11-13-13-13-13-13-13-|-13-13-13-11-------|
----------------13----|------------------------|-------------13----|
----------------------|------------------------|-------------------|

-------------------------|--------------------|
-11-11-11-11-11-11-11-11-|-11-11-11-9---------|
-------------------------|-------------11-----|
-------------------------|--------------------|

---------------------|--------------------|-------------------------|
--9-9-9--8-----------|-11-11-11-9---------|-13-13-13-13-13-13-13-13-|
---------------9-----|-------------11-----|-------------------------|
---------------------|--------------------|-------------------------|

--------------------------------|
-13-13-13-13-13-13-13-11--------|
-------------------------13-----|
--------------------------------|

-----------------|-----------------|-----------------|-6-4------------|
-----------------|---------4-8-6---|---------------6-|-----6-4--------|
-6-6-6-6-6-6-6-6-|-6-6-6-6-------4-|-4-4-4-4-4-4-4---|---------6-4--2-|
-----------------|-----------------|-----------------|----------------|

-----------------|-----------------|------------------------|
---------1-2-4---|---------3-4-6---|-----13-13-13-13-13-13--|
-2-2-2-2-------4-|-4-4-4-4-------6-|-6-6--------------------|
-----------------|-----------------|------------------------|

-----------------------------|
--13-13-13-13-13-13-13-11----|
--------------------------13-|
-----------------------------|

-----------------|-----------------|-----------------|-6-4------------|
-----------------|---------4-8-6---|---------------6-|-----6-4--------|
-6-6-6-6-6-6-6-6-|-6-6-6-6-------4-|-4-4-4-4-4-4-4---|---------6-4--2-|
-----------------|-----------------|-----------------|----------------|

-----------------|-----------------|-------------------------------|
---------1-2-4---|---------3-4-6---|-------------------------------|
-2-2-2-2-------4-|-4-4-4-4-------6-|-6-6-6-6-6-6-6-6-6-6-6-6-6-6-6-|
-----------------|-----------------|-------------------------------|

-------------------|---------|------------|-------|--------|-----------|
-------------------|---------|------------|-------|--------|-----------|
-6-6-6-6-6-6-6-6-6-|----6----|--9-8-6-4---|--2-1--|--6-----|-----------|
-------------------|---------|------------|-------|----0---|--0-0-0-0--|
Composição de Steve Harris
Colaboração e revisão:
  • Taino Vieira
57 exibições

0 comentários

Ver todos os comentários

Conseguiu tocar?

0 Tocaram 0 Ainda não

Grave um vídeo tocando Transylvania e nos envie!

00:00 / 00:00
outros vídeos desta música
repetir qualidade Automático
Outros vídeos desta música
00:00 / 00:00
Automático

Cifra Club Pro

Aproveite o Cifra Club com benefícios exclusivos e sem anúncios
Cifra Club Pro
Aproveite o Cifra Club com benefícios exclusivos e sem anúncios
OK