Cifra Club

Talk Shows On Mute

Incubus

Tab de baixo: Versão 2
(introdução)
G|-------------------------------------------------------------------------
D|--5-5---------------------------------------------------------------5-5--
A|------5--3-3-0-3-3-5-5--0-3-3-0-3-3-5-5-------------2-2----------------5-
E|----------------------------------------3-5-5-3-5-5-----3-5-5-3-5-3------

(verso)
G|-------------------------------------------------------------------------
D|--------------------------------------------5-5--------------------------
A|-3-3-0-3--0-3-3-0-3-----------------------------5------------------------
E|---------------------3-5-5-3-5--3-5-5-3-5-3------------------------------

(refrão)
G|------------------------------------------------------------------------------
D|------------------5--3h5-5-2-2------------------------------------5-----------
A|-5/8-8-8----8------------------3-5-5/8-7-3/5-3--------------------------------
E|---------88---8\3------------------------------5-0-1-1-1-3-5-0-3----3-6-3-3-3-

(solo)

G|-------------------------------------------------------------------------
D|--------------------------------------------5-5--------------------------
A|-3-3-0-3--0-3-3-0-3-----------------------------5------------------------
E|---------------------3-5-5-3-5--3-5-5-3-5-3------------------------------ x2

G|------------------------------------------------------------------------------------
D|------------------5--3h5-5-2-2-------------------------- 5-3------5-----------------
A|-5/8-8-8----8------------------3-5-5/8-7-3/5-3---------------3---------3-----3-5----
E|---------88---8\3------------------------------5-0-1-1/3--------3---3-5---3/5-----3-

(refrão)
00:00 / 00:00
Outros vídeos desta música
Repetir
Outros vídeos desta música
Composição de Ben Kenney / Boyd / Brandon Boyd / Chris DJ Kilmore / Chris Kilmore / Einziger / Jose Antonio Pasillas II / José Pasillas Ii / Kenney / Michael Einziger / Mike Einziger / Pasillas II
Colaboração e revisão:
  • Guilherme Burzynski
252 exibições

0 comentários

Ver todos os comentários

Entre para oCifra Club PRO

Tenha acesso a benefícios exclusivos no App e no Site

  • Chega de anúncios

  • Prioridade de compra em lançamentos

  • Mais recursos no app do Afinador

  • Atendimento Prioritário

  • Descontos nos produtos Cifra Club

  • Ajude a produzir mais conteúdo

00:00 / 00:00

Cifra Club Pro

Aproveite o Cifra Club com benefícios exclusivos e sem anúncios
Cifra Club Pro
Aproveite o Cifra Club com benefícios exclusivos e sem anúncios
OK