Cifra Club

Bem Apaixonado

Israel e Rodolffo

Cifra: Principal (violão e guitarra)
tom: D
Intro: D A Em G  A

Solo Intro:

E|---3/5---5-5-3-3-2-2--------------------------------|
B|---------------------5-5--3-2-3-5-------------------|
G|-2--------------------------------------------------|
D|----------------------------------------------------|
A|----------------------------------------------------|
E|----------------------------------------------------|

E|---3-3-2-2------------------------------------------|
B|-----------5-5-3-3--2-0-2-3-------------------------|
G|----------------------------------------------------|
D|----------------------------------------------------|
A|----------------------------------------------------|
E|----------------------------------------------------|

E|---2-2------------------3-2-------------------------|
B|-------5-5-3-3-2-2/3--3-----3/5---------------------|
G|----------------------------------------------------|
D|----------------------------------------------------|
A|----------------------------------------------------|
E|----------------------------------------------------|

       D
É de você que eu tô falando mesmo
        A
Não desvie o olhar de mim,não faz assim
     Em
Não seja tão injusta com o nosso amor
G
Por favor
   Bm
Eu sei que você tá sentindo medo
         G
Não se entrega porque tem receio
    Em
Às vezes chora escondida por aí
    A
Porque não vem me procurar eu tô aqui

Refrão:

   D
Eu to bem, mais bem, mais bem apaixonado
   A
E você nem aí pra mim aqui do lado
    Em                           G             A
Que bobeira, a gente tá sofrendo por besteira   (2x)

( D  A  Em  G  A )

Repete
00:00 / 00:00
Outros vídeos desta música
Repetir
Outros vídeos desta música
Composição de Sassinhora Jr
Colaboração e revisão:
39.194 exibições
    • ½ Tom
    • A
    • Bb
    • B
    • C
    • Db
    • D
    • Eb
    • E
    • F
    • F#
    • G
    • Ab
  • Adicionar à lista

    0 comentários

    Ver todos os comentários

    Entre para oCifra Club PRO

    Tenha acesso a benefícios exclusivos no App e no Site

    • Chega de anúncios

    • Prioridade de compra em lançamentos

    • Mais recursos no app do Afinador

    • Atendimento Prioritário

    • Descontos nos produtos Cifra Club

    • Ajude a produzir mais conteúdo

    00:00 / 00:00

    Cifra Club Pro

    Aproveite o Cifra Club com benefícios exclusivos e sem anúncios
    Cifra Club Pro
    Aproveite o Cifra Club com benefícios exclusivos e sem anúncios
    OK