Cifra Club

Aprenda

How Deep Is Your Love

John Frusciante

Cifra: Principal (violão e guitarra)
tom: Cm
   Eb             Eb7M            Ab7M
E|--------------------------------3----3----3-------------|
B|-8----8----8----8----8--8-8-----4----4----4-------------|
G|-8--8-8--8-8----7--7-7--7-7-----5----5----5-------------|
D|-8--8-8--8-8----8--8-8--8-8-----6--6-6--6-6-------------|
A|-6--6-6--6-6----6--6-6--6-6-----X--X-X--X-X-------------|
E|--------------------------------4--4----4---------------|

   Bb4
E|--------------------------------------------------------|
B|--------------------------------------------------------|
G|-8----8----8--------------------------------------------|
D|-8--8-8----8--------------------------------------------|
A|-8--8-8----8--------------------------------------------|
E|-6--6-6--6-6--------------------------------------------|

   Eb             Eb7M            Ab7M           Eb           
E|--------------------------------3----3----3-------------|
B|-8----8----8----8----8----8-----4----4----4-------------|
G|-8--8-8--8-8----7--7-7--7-7-----5----5----5----8--------|
D|-8--8-8--8-8----8--8-8--8-8-----6--6-6--6-6----8--------|
A|-6--6-6--6-6----6--6-6--6-6-----X--X-X--X-X----8--------|
E|--------------------------------4--4----4------6--------|
Eb      Gm     Fm7
E|---------3-3-------8------------------------------------|
B|-8--8----3-3-------9------------------------------------|
G|-8--8----3-3-------8------------------------------------|
D|-8--8----5-5--------------------------------------------|
A|-6--6----5-5----8---------------------------------------|
E|---------3-3--------------------------------------------|
                Eb       Gm7       Fm7
You know your eyes in the morning sun

   C       Fm7     G7      Bb4
E|---------8---8------------------------------------------|
B|-5--5----9---9------------------------------------------|
G|-5--5----8---8---4--4----8----8----8--------------------|
D|-5--5----10--10--3--3----8--8-8--8-8--------------------|
A|-3--3----8--8----5--5----8--8-8--8-8--------------------|
E|-----------------3--3----6--6-6--6-6--------------------|
C7         Fm7             G7        Bb4
I feel you touch me in the pouring rain

   Eb      Gm      Cm
E|---------3--3-------------------------------------------|
B|-8--8----3--3----4----4----4----------------------------|
G|-8--8----3--3----5--5-5--5-5----------------------------|
D|-8--8----5--5----5--5-5--5-5----------------------------|
A|-6--6----5--5----3--3-3--3-3----------------------------|
E|---------3--3-------------------------------------------|
        Eb              Gm     Cm
And the moment that you wander far from me
 
   Fm                  Bb4
E|--------------------------------------------------------|
B|-9------9------9-----4----4-----4-----------------------|
G|-10--10-10--10-10----3--3-3--3--3-----------------------|
D|-10--10-10--10-10----3--3-3--3--3-----------------------|
A|-8---8--8---8--8-----1--1-1--1--1-----------------------|
E|--------------------------------------------------------|
         Fm             Bb4
I wanna feel you in my arms again

   Ab             Gm
E|-4----4----4----3----3----3-----------------------------|
B|-4----4----4----3----3----3-----------------------------|
G|-5----5----5----3----3----3-----------------------------|
D|-6--6-6--6-6----5--5-5--5-5-----------------------------|
A|-6--6-6--6-6----5--5-5--5-5-----------------------------|
E|-4--4-4--4-4----3--3-3--3-3-----------------------------|
        Ab              Gm7      
And you come to me on a summer breeze

   Fm7M           C#7M
E|--------------------------------------------------------|
B|-9------9------9-----6----6----6------------------------|
G|-9---9--9---9--9-----5----5----5------------------------|
D|-10--10-10--10-10----6--6-6--6-6------------------------|
A|-8---8--8---8--8-----4--4-4--4-4------------------------|
E|--------------------------------------------------------|
        Fm7                        C#7M
Keep me warm in your love, then you softly leave
 
   Gm             Bb4
E|-3----3----3--------------------------------------------|
B|-3----3----3--------------------------------------------|
G|-3----3----3----8----8----8-----------------------------|
D|-5--5-5--5-5----8----8----8-----------------------------|
A|-5--5-5--5-5----8--8-8--8-8-----------------------------|
E|-3--3-3--3-3----6--6-6--6-6-----------------------------|
         Gm              Bb4
And it's me you need to show

   Eb
E|--------------------------------------------------------|
B|-8----8----8--------------------------------------------|
G|-8--8-8--8-8--------------------------------------------|
D|-8--8-8--8-8--------------------------------------------|
A|-6--6-6--6-6--------------------------------------------|
E|--------------------------------------------------------|
                  Eb
How deep is your love

   Eb7M
E|--------------------------------------------------------|
B|-8----8----8--------------------------------------------|
G|-7--7-7--7-7--------------------------------------------|
D|-8--8-8--8-8--------------------------------------------|
A|-6--6-6--6-6--------------------------------------------|
E|--------------------------------------------------------|
         Eb7M
Is your love, how deep is your love?
 
   Ab             Abm
E|-3----3----3----4----4----4| ----------------------------|
B|-4----4----4----6----6----6-----------------------------|
G|-5----5----5----4--4-4--4-4-----------------------------|
D|-6--6-6--6-6----6--6-6--6-6-----------------------------|
A|-X--X-X--X-X--------------------------------------------|
E|-4--4----4----------------------------------------------|
Ab7M              Abm
I really need to learn

   Eb             C#
E|--------------------------------------------------------|
B|-8----8----8----6----6----6-----------------------------|
G|-8--8-8--8-8----6--6-6--6-6-----------------------------|
D|-8--8-8--8-8----6--6-6--6-6-----------------------------|
A|-6--6-6--6-6----4--4-4--4-4-----------------------------|
E|--------------------------------------------------------|
            Eb                    C#
Cause we're living in a world of fools

   C7
E|--------------------------------------------------------|
B|-8---8--8---8--8--8--8---8--8--8--8--8------------------|
G|-9---9--9---9--9--9--9---9--9--9--9--9------------------|
D|-8---8--8---8--8--8--8---8--8--8--8--9------------------|
A|-10--10-10--10-10-10-10--10-10-10-10-10-----------------|
E|--------------------------------------------------------|
             C7
Breaking us down


   Fm
E|--------------------------------------------------------|
B|-9------9------9----------------------------------------|
G|-10-----10-----10---------------------------------------|
D|-10--10-10--10-10---------------------------------------|
A|-8---8--8---8--8----------------------------------------|
E|--------------------------------------------------------|
                            Fm
When they all should let us be

   Abm            Eb
E|-4----4----4--------------------------------------------|
B|-4----4----4----8--8------------------------------------|
G|-4----4----4----8--8------------------------------------|
D|-6--6-6--6-6----8--8------------------------------------|
A|-6--6-6--6-6----6--6------------------------------------|
E|-4--4-4--4-4--------------------------------------------|
      Abm            Eb
We belong to you and me

   Eb      Gm       Bb4
E|---------3--3-------------------------------------------|
B|-8--8----3--3-------------------------------------------|
G|-8--8----3--3-----8--8-8-8-8-8-8-8--8-8--8-8------------|
D|-8--8----5--5-----8--8-8-8-8-8-8-8--8-8--8-8------------|
A|-6--6----5--5-----8--8-8-8-8-8-8-8--8-8--8-8------------|
E|---------3--3-----6--6-6-6-6-6-6-6--6-6--6-6------------|
       Eb    Gm       Bb4
Na na  na na na naaaa
 
   Eb             Eb7M
E|--------------------------------------------------------|
B|-8----8----8----8----8----8-----------------------------|
G|-8--8-8--8-8----7--7-7--7-7-----------------------------|
D|-8--8-8--8-8----8--8-8--8-8-----------------------------|
A|-6--6-6--6-6----6--6-6--6-6-----------------------------|
E|--------------------------------------------------------|
Eb             Eb7M
Is your love, how deep is your love?

   Ab             Abm
E|-3----3----3----4----4----4| ----------------------------|
B|-4----4----4----6----6----6-----------------------------|
G|-5----5----5----4--4-4--4-4-----------------------------|
D|-6--6-6--6-6----6--6-6--6-6-----------------------------|
A|-X--X-X--X-X--------------------------------------------|
E|-4--4----4----------------------------------------------|
Ab            Abm
I really need to learn

   Eb             C#
E|--------------------------------------------------------|
B|-8----8----8----6----6----6-----------------------------|
G|-8--8-8--8-8----6--6-6--6-6-----------------------------|
D|-8--8-8--8-8----6--6-6--6-6-----------------------------|
A|-6--6-6--6-6----4--4-4--4-4-----------------------------|
E|--------------------------------------------------------|
       Eb               C#
Cause we're living in a world of fools
 
   C7
E|--------------------------------------------------------|
B|-9---9--9---9--9--9--9---9--9--9--9--9------------------|
G|-8---8--8---8--8--8--8---8--8--8--8--8------------------|
D|-9---9--9---9--9--9--9---9--9--9--9| —9-------------------|
A|-10--10-10--10-10-10-10--10-10-10-10-10-----------------|
E|--------------------------------------------------------|
       C7
Breaking us down

   Fm
E|--------------------------------------------------------|
B|-9------9------9----------------------------------------|
G|-10-----10-----10---------------------------------------|
D|-10--10-10--10-10---------------------------------------|
A|-8---8--8---8--8----------------------------------------|
E|--------------------------------------------------------|
                 Fm
When they all should let us be

   Abm            Eb
E|-4----4----4--------------------------------------------|
B|-4----4----4----8--8------------------------------------|
G|-4----4----4----8--8------------------------------------|
D|-6--6-6--6-6----8--8------------------------------------|
A|-6--6-6--6-6----6--6------------------------------------|
E|-4--4-4--4-4--------------------------------------------|
    Abm          Eb
We belong to you and me
 
   Eb      Gm       Bb4
E|---------3--3-------------------------------------------|
B|-8--8----3--3----------------------------------8--------|
G|-8--8----3--3-----8--8-8-8-8-8--8--8-8--8-8----8--------|
D|-8--8----5--5-----8--8-8-8-8-8--8--8-8--8-8----8--------|
A|-6--6----5--5-----8--8-8-8-8-8--8--8-8--8-8----6--------|
E|---------3--3-----6--6-6-6-6-6--6--6-6--6-6-------------|
       Eb    Gm       Bb4 Eb
Na na  na na na naaaa
Composição de Barry Gibb / Maurice Gibb / Robin Gibb
118.958 exibições
    • ½ Tom
    • Am
    • Bbm
    • Bm
    • Cm
    • C#m
    • Dm
    • Ebm
    • Em
    • Fm
    • F#m
    • Gm
    • G#m
  • Adicionar à lista

    0 comentários

    Ver todos os comentários

    Conseguiu tocar?

    21 Tocaram 1 Ainda não

    Grave um vídeo tocando How Deep Is Your Love e nos envie!

    00:00 / 00:00
    Outros vídeos desta música
    Repetir Qualidade Automático
    Outros vídeos desta música
    00:00 / 00:00
    Automático

    Cifra Club Pro

    Aproveite o Cifra Club com benefícios exclusivos e sem anúncios
    Cifra Club Pro
    Aproveite o Cifra Club com benefícios exclusivos e sem anúncios
    OK