Cifra Club

Aprenda

Como Não Me Apaixonar

Jorge & Mateus

Cifra: Principal (violão e guitarra)
Já pensou em usar uma coleção de roupas do Cifra Club? Responda as perguntas abaixo e nos ajude nessa missão! →
tom: C
Intro: F9  C  Am7  G  F9  Am7  F9  C

            F9                                    C                     Am7                    G
E|---------8--------8------8------7------7/8---8~-----------8-7-7/8--8~-------8--7--------------|
B|-------------------------------------------------------------------------------------8--------|
G|---7/9 -------9----------9------7------7/9---9~-----------9-7-7/9--9~-------9--7---------7/9~-|
D|-------------------------------------------------------------------------------------9---8/10-|
A|----------------------------------------------------------------------------------------------|
E|----------------------------------------------------------------------------------------------|

            F9                                    Am7                  F9                    C
E|---------8--------8------8------7------7/8---8~---------8-7--7/8--8~-------8--7---8/10---8---|
B|---------------------------------------------------------------------------------------------|
G|---7/9 -------9----------9------7------7/9---9~---------9-7--7/9--9~-------9--7---9/10---9---|
D|---------------------------------------------------------------------------------------------|
A|---------------------------------------------------------------------------------------------|
E|---------------------------------------------------------------------------------------------|


    C
Porque fui andar no caminho de pedra querendo encontrar
      Am7
Na noite buscar um amor de um amor que não ia me amar
   F                              Dm7
Você esteve tão perto, perfeita amiga eu não pude enxergar
    F                             G
Que era a exata pessoa e hoje na boa eu começo a gostar

    C
Do seu olhar, do sorriso lindo, jeito de falar
   Am7
Quando me liga, brinca, muda a voz, pede pra adivinhar
      F                          Dm7
E no meu aniversário virou meia-noite é a primeira a lembrar
        F                                 G
Que as minhas melhores risadas somente você consegue arrancar
F9            G        C
Como não me apaixonar,  
F9             G      C
como não me apaixonar

F
Tenho a certeza e aquela incerteza
C
Não existe mais, ficou pra trás
F
O meu pensamento vive e pensa todo o tempo
 C
E me pede mais, e eu vou atrás

F9                     G
Tenho o que quero e preciso
                  Am7                C
E as briguinhas comigo eu deixo pra lá
     F9              G      C
Quem sabe é o seu jeito de amar

F9                     G
Tenho o que quero e preciso
                  Am7                C
E as briguinhas comigo eu deixo pra lá
     F9              G      C
Quem sabe é o seu jeito de amar
Composição de Diego De Souza / Juliano De Freitas / Lucas Freitas
249.300 exibições
  • Simplificar cifra
    • ½ Tom
    • A
    • Bb
    • B
    • C
    • Db
    • D
    • Eb
    • E
    • F
    • F#
    • G
    • Ab
  • Adicionar à lista

    0 comentários

    Ver todos os comentários
    00:00 / 00:00
    Outros vídeos desta música
    Repetir Qualidade Automático
    Outros vídeos desta música
    00:00 / 00:00
    Automático

    Cifra Club Pro

    Aproveite o Cifra Club com benefícios exclusivos e sem anúncios
    Cifra Club Pro
    Aproveite o Cifra Club com benefícios exclusivos e sem anúncios
    OK