Cifra Club

Aprenda

Ela Une Todas As Coisas

Jorge Vercillo

Cifra: Aula-completa (violão e guitarra)
Tom: Bb
[Intro] Eb7M  C7(9)  Eb7(9)  Eb/F  Gm7(9)  
        Eb7M  Eb7M(13)  C7(9)  Eb7(9)  Eb/F

[TAB - INTRO]

Parte 1 de 6
             Eb7M
E|-1h3--------------------------------------|
B|------1h3---------------------------------|
G|-0---------3h5--p3------------------------|
D|------0------------5p3h5------------------|
A|-----------6------------------------------|
E|------------------------------------------|

Parte 2 de 6
   C7(9)
E|-0-----0-0---0-----0-----0----------------|
B|---3-----3-----3-----3---3-3--------------|
G|-----3---3-3-----3-----3-3---3------------|
D|------------------------------------------|
A|-3---------------3------------------------|
E|------------------------------------------|
          ↓                ↓

Parte 3 de 6
   Eb7(9)  Eb/F             Gm7(9)
E|--------------------------5-5-5---5---5-5-|
B|-6--6-6--8----------------3-3-3---3---3-3-|
G|-6--6-6--8----------------3-3-3---3---3-3-|
D|-5--5-5--8--8-5-----------3-----------3---|
A|-6--6----8------8-5-----------------------|
E|--------------------8-6-3-------3---3-----|
      ↓                     ↓           ↓


Parte 4 de 6
   Eb7M     Eb7M(13)
E|----3-3--------3--------------------------|
B|-3--3-3-3-3----3-3------------------------|
G|-3--3-3-3-5----5-5------------------------|
D|-5--5---5-5----5-5------------------------|
A|-6----------6------6----------------------|
E|------------------------------------------|
      ↓          ↓

          
Parte 5 de 6
   C7(9)
E|-0-----0-0---0-----0-----0----------------|
B|---3-----3-----3-----3---3-3--------------|
G|-----3---3-3-----3-----3-3---3------------|
D|------------------------------------------|
A|-3---------------3------------------------|
E|------------------------------------------|

Parte 6 de 6
   Eb7(9)  Eb/F                    
E|------------------------------------------|
B|-6--6-6--8--8-8---------------------------|
G|-6--6-6--8--8-8---------------------------|
D|-5--5-5--8--8-8---------------------------|
A|-6--6----8--8-----------------------------|
E|------------------------------------------|
      ↓       ↓                       


[Primeira parte]

         Bb7M
Ela une todas as coisas
             Gm7
Como eu poderia explicar
            Eb7M
Um doce mistério de rio
              Cm7(9)       Eb/F
Com a transparência de um mar

         Bb7M
Ela une todas as coisas
            Gm7
Quantos elementos vão lá?
            Eb7M
Sentimento fundo de água
     Bb9/D  Cm7    Eb/F
Com toda leveza do ar

             Bb7M
Ela está em todas as coisas
  F/A      Gm7
Até no vazio que me dá
     Gm7/F     Eb7M  Bb7M(9)/D
Quando vejo a tarde cair
  Cm7        Eb/F
E ela não está

[TAB - PRIMEIRA PARTE]

Parte 1 de 6
   Bb7M            Gm7
E|---x---------------x----------------------|
B|-6-x-x---6--6-6--3-x-x---3--3-3-----------|
G|-7-x-x---7--7-7--3-x-x---3--3-3-----------|
D|-7-x-x---7--7-7--3-x-x---3--3-3-----------|
A|---x---------------x----------------------|
E|-6-x---6---------3-x---3------------------|
              ↓ ↑             ↓ ↑


Parte 2 de 6
   Eb7M            Cm7(9)  Eb/F
E|---x--------3------x-------3--3-3---------|
B|-3-x-x---3--3-3--3-x-x-----4--4-4---------|
G|-3-x-x---3--3-3--3-x-x-----3--3-3---------|
D|-5-x-x---5--5-5--1-x-x---3----------------|
A|-6-x---6---------3-x----------------------|
E|---x---------------x----------------------|
              ↓ ↑               ↓ ↑


Parte 3 de 6
   Bb7M            Gm7
E|---x---------------x----------------------|
B|-6-x-x---6--6-6--3-x-x---3--3-3-----------|
G|-7-x-x---7--7-7--3-x-x---3--3-3-----------|
D|-7-x-x---7--7-7--3-x-x---3--3-3-----------|
A|---x---------------x----------------------|
E|-6-x---6---------3-x---3------------------|
              ↓ ↑             ↓ ↑


Parte 4 de 6
   Eb7M         Eb9/D  Cm7     Eb/F
E|---x--------x-1--------x-------3--3-3-----|
B|-3-x-x---3--x-1------4-x-x-----4--4-4-----|
G|-3-x-x---3--x-3------3-x-x-----3--3-3-----|
D|-5-x-x---5--x-0------5-x-x---3------------|
A|-6-x---6----x--------3-x------------------|
E|---x--------x-----------------------------|
                                    ↓ ↑

Parte 5 de 6
   Bb7M         F/A  Gm7          Gm7/F  
E|---x--------x--------x--------x-----------|
B|-6-x-x---6--x-6----3-x-x---3--x-3---------|
G|-7-x-x---7--x-5----3-x-x---3--x-3---------|
D|-7-x-x---7--x-3----3-x-x---3--x-3---------|
A|---x--------x--------x--------x-----------|
E|-6-x---6----x-5----3-x---3----x-1---------|

Parte 6 de 6
   Eb7M  Bb7M(9)/D    Cm7        Eb/F
E|---x-------5-x--------3-x------3--3-3-----|
B|-3-x-3---6-6-x-6----6-6-x-6----4--4-4-----|
G|-3-x-3---5-5-x-5----3-3-x-3----3--3-3-----|
D|-5-x-5---8---x-8----5---x-5----3--3-3-----|
A|-6-x---6-5---x---5--3---x---3-------------|
E|---x---------x----------x-----------------|
                                    ↓ ↑


[Pré-refrão]

            Gm7(9)
Talvez ela saiba de cor
                Eb7M
Tudo que eu preciso sentir
           C#7M
Pedra preciosa de olhar
           Cm7      Dm7
Ela só precisa existir
 Ebm7    Eb/F  Bb7M  Eb/F
Para me completar

[TAB - PRÉ-REFRÃO]
Parte 1 de 3
   Gm7(9)          Eb7M
E|-5-x-x---5--5-5----x--------3-3-----------|
B|-3-x-x---3--3-3--3-x-x---3--3-3-----------|
G|-3-x-x---3--3-3--3-x-x---3--3-3-----------|
D|---x--------3-3--5-x-x---5--5-5-----------|
A|---x-------------6-x---6------------------|
E|-3-x---3-----------x----------------------|
              ↓ ↑             ↓ ↑                       

Parte 2 de 3
   C#7M            Cm7       Dm7
E|---x--------4-4----3-x--------5-x---------|
B|-6-x-x---6--6-6--4-4-x-4----6-6-x-6-------|
G|-5-x-x---5--5-5--3-3-x-3----5-5-x-5-------|
D|-6-x-x---6--6-6--5---x-5----7---x-7-------|
A|-4-x---4---------3---x---3--5---x---5-----|
E|---x-----------------x----------x---------|
              ↓ ↑                               

Parte 3 de 3
   Ebm7       Eb/F   Bb7M   Eb/F
E|---6-x------6-5-5------x------------------|
B|-7-7-x-7----8-6-6--6-6-x--8---------------|
G|-6-6-x-6----8-5-5--7-7-x--8---------------|
D|-8---x-8-----------7-7-x--8---------------|
A|-6---x---6--8----------x--8---------------|
E|-----x-------------6---x------------------|

[Refrão]

           Gm7(9)
Ela une o mar
             Eb7M  Eb7M(13)
Com o meu olhar
           C7(9)
Ela só precisa existir
              Eb7(9)  Eb/F
Pra me completa_______ar

           Gm7(9)
Ela une o mar
             Eb7M  Eb7M(13)
Com o meu olhar
           C7(9)
Ela só precisa existir
              Eb7(9)  Eb/F
Pra me completa_______ar

[TAB - REFRÃO]

Parte 1 de 6
   Gm7(9)            Eb7M     Eb7M(13)
E|-5-5-5-5---5---5-5----3-3--------3--------|
B|-3-3-3-3---3---3-3-3--3-3-3-3----3-3------|
G|-3-3-3-3---3---3-3-3--3-3-3-5----5-5------|
D|---3-----------3---5--5---5-5----5-5------|
A|-------------------6----------6------6----|
E|-3-------3---3----------------------------|
     ↓           ↓      ↓          ↓

         
Parte 2 de 6
   C7(9)
E|-0-----0-0---0-----0-----0----------------|
B|---3-----3-----3-----3---3-3--------------|
G|-----3---3-3-----3-----3-3---3------------|
D|------------------------------------------|
A|-3---------------3------------------------|
E|------------------------------------------|
 
Parte 3 de 6
   Eb7(9)  Eb/F             Gm7(9)
E|--------------------------5-5-5---5---5-5-|
B|-6--6-6--8----------------3-3-3---3---3-3-|
G|-6--6-6--8----------------3-3-3---3---3-3-|
D|-5--5-5--8--8-5-----------3-----------3---|
A|-6--6----8------8-5-----------------------|
E|--------------------8-6-3-------3---3-----|
      ↓                     ↓           ↓

          
Parte 4 de 6
   Eb7M     Eb7M(13)
E|----3-3--------3--------------------------|
B|-3--3-3-3-3----3-3------------------------|
G|-3--3-3-3-5----5-5------------------------|
D|-5--5---5-5----5-5------------------------|
A|-6----------6------6----------------------|
E|------------------------------------------|
      ↓          ↓

          
Parte 5 de 6
   C7(9)
E|-0-----0-0---0-----0-----0----------------|
B|---3-----3-----3-----3---3-3--------------|
G|-----3---3-3-----3-----3-3---3------------|
D|------------------------------------------|
A|-3---------------3------------------------|
E|------------------------------------------|

Parte 6 de 6
   Eb7(9)  Eb/F                    
E|------------------------------------------|
B|-6--6-6--8--8-8---------------------------|
G|-6--6-6--8--8-8---------------------------|
D|-5--5-5--8--8-8---------------------------|
A|-6--6----8--8-----------------------------|
E|------------------------------------------|
      ↓       ↓ 


[Segunda parte]

             Bb7M
Ela une as quatro estações
            Gm7
Une dois caminhos num só
                  Eb7M
Sempre que eu me vejo perdido
      Bb9/D  Cm7       Eb/F
Une amigos   ao meu redor

             Bb7M
Ela está em todas as coisas
    F/A       Gm7 
Até     no vazio que me dá
     Gm7/F     Eb7M   Bb9/D
Quando vejo a tarde cair
  Cm7        Eb/F
E ela não está

[TAB - SEGUNDA PARTE]

Parte 3 de 6
   Bb7M            Gm7
E|---x---------------x----------------------|
B|-6-x-x---6--6-6--3-x-x---3--3-3-----------|
G|-7-x-x---7--7-7--3-x-x---3--3-3-----------|
D|-7-x-x---7--7-7--3-x-x---3--3-3-----------|
A|---x---------------x----------------------|
E|-6-x---6---------3-x---3------------------|
              ↓ ↑             ↓ ↑


Parte 4 de 6
   Eb7M         Eb9/D  Cm7     Eb/F
E|---x--------x-1--------x-------3--3-3-----|
B|-3-x-x---3--x-1------4-x-x-----4--4-4-----|
G|-3-x-x---3--x-3------3-x-x-----3--3-3-----|
D|-5-x-x---5--x-0------5-x-x---3------------|
A|-6-x---6----x--------3-x------------------|
E|---x--------x-----------------------------|
                                ↓ ↑

Parte 5 de 6
   Bb7M         F/A  Gm7          Gm7/F  
E|---x--------x--------x--------x-----------|
B|-6-x-x---6--x-6----3-x-x---3--x-3---------|
G|-7-x-x---7--x-5----3-x-x---3--x-3---------|
D|-7-x-x---7--x-3----3-x-x---3--x-3---------|
A|---x--------x--------x--------x-----------|
E|-6-x---6----x-5----3-x---3----x-1---------|

Parte 6 de 6
   Eb7M  Bb7M(9)/D    Cm7        Eb/F
E|---x-------5-x--------3-x------3--3-3-----|
B|-3-x-3---6-6-x-6----6-6-x-6----4--4-4-----|
G|-3-x-3---5-5-x-5----3-3-x-3----3--3-3-----|
D|-5-x-5---8---x-8----5---x-5----3--3-3-----|
A|-6-x---6-5---x---5--3---x---3-------------|
E|---x---------x----------x-----------------|
                                    ↓ ↑


[Pré-refrão]

            Gm7(9)
Talvez ela saiba de cor
                Eb7M
Tudo que eu preciso sentir
           C#7M
Pedra preciosa de olhar
           Cm7      Dm7
Ela só precisa existir
 Ebm7    Eb/F  Bb7M  Eb/F
Para me completar

[TAB - PRÉ-REFRÃO]
Parte 1 de 3
   Gm7(9)          Eb7M
E|-5-x-x---5--5-5----x--------3-3-----------|
B|-3-x-x---3--3-3--3-x-x---3--3-3-----------|
G|-3-x-x---3--3-3--3-x-x---3--3-3-----------|
D|---x--------3-3--5-x-x---5--5-5-----------|
A|---x-------------6-x---6------------------|
E|-3-x---3-----------x----------------------|
              ↓ ↑             ↓ ↑                       

Parte 2 de 3
   C#7M            Cm7       Dm7
E|---x--------4-4----3-x--------5-x---------|
B|-6-x-x---6--6-6--4-4-x-4----6-6-x-6-------|
G|-5-x-x---5--5-5--3-3-x-3----5-5-x-5-------|
D|-6-x-x---6--6-6--5---x-5----7---x-7-------|
A|-4-x---4---------3---x---3--5---x---5-----|
E|---x-----------------x----------x---------|
              ↓ ↑                               

Parte 3 de 3
   Ebm7       Eb/F   Bb7M   Eb/F
E|---6-x------6-5-5------x------------------|
B|-7-7-x-7----8-6-6--6-6-x--8---------------|
G|-6-6-x-6----8-5-5--7-7-x--8---------------|
D|-8---x-8-----------7-7-x--8---------------|
A|-6---x---6--8----------x--8---------------|
E|-----x-------------6---x------------------|

[Refrão]

           Gm7(9)
Ela une o mar
             Eb7M  Eb7M(13)
Com o meu olhar
           C7(9)
Ela só precisa existir
              Eb7(9)  Eb/F
Pra me completa_______ar

           Gm7(9)
Ela une o mar
             Eb7M  Eb7M(13)
Com o meu olhar
           C7(9)
Ela só precisa existir
              Eb7(9)  Eb/F
Pra me completa_______ar

             Gm7(9)
Une o meu viver
             Eb7M  Eb7M(13)
Com o seu viver
           C7(9)
Ela só precisa existir
               Eb7(9)  Eb/F
Para me completa_______ar

Gm7(9)  Eb7M  Eb7M(13)  C7(9)  Eb7(9)  Eb/F
Gm7(9)  Eb7M  Eb7M(13)  C7(9)  Eb7(9)  Eb/F

[TAB - REFRÃO] REPETE 2x

Parte 1 de 6
   Gm7(9)            Eb7M     Eb7M(13)
E|-5-5-5-5---5---5-5----3-3--------3--------|
B|-3-3-3-3---3---3-3-3--3-3-3-3----3-3------|
G|-3-3-3-3---3---3-3-3--3-3-3-5----5-5------|
D|---3-----------3---5--5---5-5----5-5------|
A|-------------------6----------6------6----|
E|-3-------3---3----------------------------|
     ↓           ↓      ↓          ↓

         
Parte 2 de 6
   C7(9)
E|-0-----0-0---0-----0-----0----------------|
B|---3-----3-----3-----3---3-3--------------|
G|-----3---3-3-----3-----3-3---3------------|
D|------------------------------------------|
A|-3---------------3------------------------|
E|------------------------------------------|
 
Parte 3 de 6
   Eb7(9)  Eb/F             Gm7(9)
E|--------------------------5-5-5---5---5-5-|
B|-6--6-6--8----------------3-3-3---3---3-3-|
G|-6--6-6--8----------------3-3-3---3---3-3-|
D|-5--5-5--8--8-5-----------3-----------3---|
A|-6--6----8------8-5-----------------------|
E|--------------------8-6-3-------3---3-----|
      ↓                     ↓           ↓

          
Parte 4 de 6
   Eb7M     Eb7M(13)
E|----3-3--------3--------------------------|
B|-3--3-3-3-3----3-3------------------------|
G|-3--3-3-3-5----5-5------------------------|
D|-5--5---5-5----5-5------------------------|
A|-6----------6------6----------------------|
E|------------------------------------------|
      ↓          ↓

          
Parte 5 de 6
   C7(9)
E|-0-----0-0---0-----0-----0----------------|
B|---3-----3-----3-----3---3-3--------------|
G|-----3---3-3-----3-----3-3---3------------|
D|------------------------------------------|
A|-3---------------3------------------------|
E|------------------------------------------|

Parte 6 de 6
   Eb7(9)  Eb/F                    
E|------------------------------------------|
B|-6--6-6--8--8-8---------------------------|
G|-6--6-6--8--8-8---------------------------|
D|-5--5-5--8--8-8---------------------------|
A|-6--6----8--8-----------------------------|
E|------------------------------------------|
      ↓       ↓
Composição de Jorge Vercillo / Jota Maranhao
Colaboração e revisão:
  • Caico Antunes
2.944 exibições
  • Simplificar cifra
    • ½ Tom
    • A
    • Bb
    • B
    • C
    • Db
    • D
    • Eb
    • E
    • F
    • F#
    • G
    • Ab
  • Adicionar à lista

    0 comentários

    Mostrar mais comentários

    Conseguiu tocar?

    1 Tocaram 1 Ainda não

    Grave um vídeo tocando Ela Une Todas As Coisas e mande pra gente!

    00:00 / 00:00
    outros vídeos desta música
    repetir qualidade Automático
    Outros vídeos desta música
    00:00 / 00:00
    Automático
    Capítulos
    • Tocando a Música
    • Apresentação / Equipamentos
    • Acordes Introdução
    • Tocando Introdução
    • Ensinando Introdução Lento
    • Ensinando Introdução - Parte 1
    • Ensinando Introdução - Parte 2
    • Ensinando Introdução - Parte 3
    • Ensinando Introdução - Parte 4
    • Ensinando Introdução - Parte 5
    • Ensinando Introdução - Parte 6
    • Acordes Primeira Parte
    • Tocando Primeira Parte
    • Ensinando Primeira Parte Lento
    • Ensinando Primeira Parte - Parte 1
    • Ensinando Primeira Parte - Parte 2
    • Ensinando Primeira Parte - Parte 3
    • Ensinando Primeira Parte - Parte 4
    • Ensinando Primeira Parte - Parte 5
    • Ensinando Primeira Parte - Parte 6
    • Acordes Pré-Refrão
    • Tocando Pré-Refrão
    • Ensinando Pré-Refrão Lento
    • Ensinando Pré-Refrão - Parte 1
    • Ensinando Pré-Refrão - Parte 2
    • Ensinando Pré-Refrão - Parte 3
    • Dicas Refrão
    • Tocando Refrão
    • Ensinando Refrão Lento
    • Ensinando Refrão - Parte 1
    • Ensinando Refrão - Parte 2
    • Ensinando Refrão - Parte 3
    • Ensinando Refrão - Parte 4
    • Ensinando Refrão - Parte 5
    • Ensinando Refrão - Parte 6
    • Encerramento
    OK