Cifra Club

Around The World

Kings Of Leon

Cifra: Principal
exibições 669
Tom: A
Intro & Verse 1

E|-------------------------------------------------------------------------------------|
B|---10-10-10--12-10--10-12-10--10-12-10--12--10-10-10--10-10--10-10-10-10-10-10--10---|
G|---9--9--9---9--9---9--9--9---9--9--9---9---11-11-11---9-11--11-9-11--11-9-11---9----|  repeat times 7
D|---11-11-11--11-11--11-11-11--11-11-11--11--11-11-11--11-11--11-11-11-11-11-11--11---|
A|--------------------------------------------9--9--9----9-9---9--9--9--9--9--9---9----|
E|-------------------------------------------------------------------------------------|

Caleb (On Jools Holland Plays picked notes during verse)

E|-------------------------------------------------------------|
B|-------------------------------------------------------------|
G|-------------------------------------------------------------|
D|-------------------------------------------------------------|
A|-------------------------------------------------------------|  also times 7
E|---5-x-5--7-5--5-7-5--5-7-5--/9~--2-2--4-2--2-4-2--2-4-2--2--|

Chorus

Caleb:
   ^  ^ v ^ v  ^  ^ v ^ v  ^  ^ v ^ v  ^  ^ v ^ v  ^  ^ v ^ v  ^  ^ v ^ v  ^  ^ v ^ v  ^  ^ v ^ v
E|-5--5-5-5-5--5--5-5-5-5--5--5-5-5-5--5--5-5-5-5--2--2-2-2-2--2--2-2-2-2--2--2-2-2-2--2--2-2-2-2-|
B|-5-=5-5-5-5--5--5-5-5-5--5--5-5-5-5--5--5-5-5-5--2--2-2-2-2--2--2-2-2-2--2--2-2-2-2--2--2-2-2-2-|
G|-6--6-6-6-6--6--6-6-6-6--6--6-6-6-6--6--6-6-6-6--3--3-3-3-3--3--3-3-3-3--3--3-3-3-3--3--3-3-3-3-| 
D|-7--7-7-7-7--7--7-7-7-7--7--7-7-7-7--7--7-7-7-7--4--4-4-4-4--4--4-4-4-4--4--4-4-4-4--4--4-4-4-4-|
A|-7--7-7-7-7--7--7-7-7-7--7--7-7-7-7--7--7-7-7-7--4--4-4-4-4--4--4-4-4-4--4--4-4-4-4--4--4-4-4-4-|
E|-5--5-5-5-5--5--5-5-5-5--5--5-5-5-5--5--5-5-5-5--2--2-2-2-2--2--2-2-2-2--2--2-2-2-2--2--2-2-2-2-|

   ^  ^ v ^ v  ^  ^ v ^ v  ^  ^ v ^ v  ^  ^ v ^ v  ^  ^ v ^ v  ^  ^ v ^ v  ^ v ^ v ^ v ^ v ^ v
E|-5--5-5-5-5--5--5-5-5-5--5--5-5-5-5--5--5-5-5-5--2--2-2-2-2--2--2-2-2-2--0-0-0-0-0-0-0-0-0-0---|
B|-5-=5-5-5-5--5--5-5-5-5--5--5-5-5-5--5--5-5-5-5--2--2-2-2-2--2--2-2-2-2--0-0-0-0-0-0-0-0-0-0---|
G|-6--6-6-6-6--6--6-6-6-6--6--6-6-6-6--6--6-6-6-6--3--3-3-3-3--3--3-3-3-3--1-1-1-1-1-1-1-1-1-1---|
D|-7--7-7-7-7--7--7-7-7-7--7--7-7-7-7--7--7-7-7-7--4--4-4-4-4--4--4-4-4-4--2-2-2-2-2-2-2-2-2-2---|
A|-7--7-7-7-7--7--7-7-7-7--7--7-7-7-7--7--7-7-7-7--4--4-4-4-4--4--4-4-4-4--2-2-2-2-2-2-2-2-2-2---|
E|-5--5-5-5-5--5--5-5-5-5--5--5-5-5-5--5--5-5-5-5--2--2-2-2-2--2--2-2-2-2--0-0-0-0-0-0-0-0-0-0---|

Matthew:
   ^  ^ v ^ v  ^  ^ v ^ v  ^  ^ v ^ v  ^  ^ v ^ v  ^  ^ v ^ v  ^  ^ v ^ v  ^  ^ v ^ v  ^  ^ v ^ v
E|-5--5-5-5-5--5--5-5-5-5--5--5-5-5-5--5--5-5-5-5--2--2-2-2-2--2--2-2-2-2--2--2-2-2-2--2--2-2-2-2-|
B|-5-=5-5-5-5--5--5-5-5-5--5--5-5-5-5--5--5-5-5-5--2--2-2-2-2--2--2-2-2-2--2--2-2-2-2--2--2-2-2-2-|
G|-6--6-6-6-6--6--6-6-6-6--6--6-6-6-6--6--6-6-6-6--3--3-3-3-3--3--3-3-3-3--3--3-3-3-3--3--3-3-3-3-| 
D|-7--7-7-7-7--7--7-7-7-7--7--7-7-7-7--7--7-7-7-7--4--4-4-4-4--4--4-4-4-4--4--4-4-4-4--4--4-4-4-4-|
A|-7--7-7-7-7--7--7-7-7-7--7--7-7-7-7--7--7-7-7-7--4--4-4-4-4--4--4-4-4-4--4--4-4-4-4--4--4-4-4-4-|
E|-5--5-5-5-5--5--5-5-5-5--5--5-5-5-5--5--5-5-5-5--2--2-2-2-2--2--2-2-2-2--2--2-2-2-2--2--2-2-2-2-|

   ^  ^ v ^ v  ^  ^ v ^ v  ^  ^ v ^ v  ^  ^ v ^ v  ^  ^ v ^ v  ^  ^ v ^ v  ^ v ^ v ^ v ^ v ^ v
E|-5--5-5-5-5--5--5-5-5-5--5--5-5-5-5--5--5-5-5-5--2--2-2-2-2--2--2-2-2-2--x-x-x-x-x-x-x-x-x-x---|
B|-5-=5-5-5-5--5--5-5-5-5--5--5-5-5-5--5--5-5-5-5--2--2-2-2-2--2--2-2-2-2--8-8-8-8-8-8-8-8-8-8---|
G|-6--6-6-6-6--6--6-6-6-6--6--6-6-6-6--6--6-6-6-6--3--3-3-3-3--3--3-3-3-3--9-9-9-9-9-9-9-9-9-9---|
D|-7--7-7-7-7--7--7-7-7-7--7--7-7-7-7--7--7-7-7-7--4--4-4-4-4--4--4-4-4-4--9-9-9-9-9-9-9-9-9-9---|
A|-7--7-7-7-7--7--7-7-7-7--7--7-7-7-7--7--7-7-7-7--4--4-4-4-4--4--4-4-4-4--7-7-7-7-7-7-7-7-7-7---|
E|-5--5-5-5-5--5--5-5-5-5--5--5-5-5-5--5--5-5-5-5--2--2-2-2-2--2--2-2-2-2--x-x-x-x-x-x-x-x-x-x---|



Verse 2

Caleb Plays the same as Verse 1.

Matthew

        *This part has a flanger effect*            *This part is constant strumming with no effect*
E|------------------------------------------------||------------------------------------------------|
B|-----7--------7---7---7\--/--5--------5---5---5-||----------5---------------7---------------------|
G|--9~---9~~--9---9---9--\--/6---6~~--6---6---6--=||x2--then--6-(for-4-bars)--6-(for-4-bars)--------|x2
D|------------------------------------------------||----------7---------------7---------------------|
A|------------------------------------------------||------------------------------------------------|
E|------------------------------------------------||------------------------------------------------|

Chorus 2
Caleb plays as before and Matthew continues playing the second part of verse 2
until his next lead part.
Acordes para:
    Colaboração e revisão:
    • Miguel Ferreira

    0 comentários

      mostrar mais comentários

      Conseguiu tocar?

      0tocaram0ainda não

      Grave um vídeo tocando Around The World e mande pra gente!

      00:00 / 00:00
      outros vídeos desta música
      repetirqualidadeautomática
      Outro vídeos desta música
        00:00 / 00:00
        automática
        OK