Cifra Club

O Mundo Perdido de La Muerte

La Muerte

Cifra: Principal (violão e guitarra)
tom: G
[Intro]

   C#m
E|-------------------------|
B|-----5-----5-----5-----5-|
G|---6-----6-----6-----6---|
D|-6-----6-----6-----6-----|
A|-------------------------|
E|-------------------------|

   B
E|-------------------------|
B|-----4-----4-----4-----4-|
G|---4-----4-----4-----4---|
D|-4-----4-----4-----4-----|
A|-------------------------|
E|-------------------------|

   A
E|-------------------------|
B|-----2-----2-----2-----2-|
G|---2-----2-----2-----2---|
D|-2-----2-----2-----2-----|
A|-------------------------|
E|-------------------------|

   B
E|-------------------------|
B|-----4-----4-----4-----4-|
G|---4-----4-----4-----4---|
D|-4-----4-----4-----4-----|
A|-------------------------|
E|-------------------------|

   C#m
E|-------------------------|
B|-----5-----5-----5-----5-|
G|---6-----6-----6-----6---|
D|-6-----6-----6-----6-----|
A|-------------------------|
E|-------------------------|

   B
E|-------------------------|
B|-----4-----4-----4-----4-|
G|---4-----4-----4-----4---|
D|-4-----4-----4-----4-----|
A|-------------------------|
E|-------------------------|

   A
E|-------------------------|
B|-----2-----2-----2-----2-|
G|---2-----2-----2-----2---|
D|-2-----2-----2-----2-----|
A|-------------------------|
E|-------------------------|

   B
E|-------------------------|
B|-----4-----4-----4-----4-|
G|---4-----4-----4-----4---|
D|-4-----4-----4-----4-----|
A|-------------------------|
E|-------------------------|

[Primeira Parte]

C#m
Acordei
B                     A
Mas não vi o Sol aparecer

Avistei
B                             
Pela janela meu céu a desaparecer

C#m
Você me faz lembrar
B
De quando estávamos juntos
A
Me trouxe a esperança
B
E me tirou o resto do mundo

C#m
Agora me diga o porquê (o porquê)
B
Você fez isso
A
Eu não aguento mais
B
Tudo isso

C#m
Por que você
           B
Fez isso comigo
A
Não aguento
B
Essa dor

[Segunda Parte]

C#m
Não adianta abrir
B
Os meus olhos
                   B
Pois vai continuar tudo escuro
      B
Pra você

C#m
Lembro que acendi
            B
A chamas da vida
                A
Mas você apagou tudo
             B
Me tirando o resto do mundo

[Terceira Parte]

C#m              B
Nem um pouco de Amor restou aqui
A                   B
Apenas o meu rancor e tristeza que bate vem me destruir

C#m
Eu não aguento mais
B
Ficar aqui
A
Por favor
B
Vem me construir

C#m
Não me deixe me auto destruir
B
Eu preciso de você aqui (de você aqui)
A
Venha me salvar
         B
Esses fantasmas não param de me assombrar

C#m
Bem vindo ao mundo
B
Perdido de La Muerte
A
Em um lugar bem distante
B
Embaixo do inferno de Dante

C#m                    B
Por favor vem me tirar daqui
A                  B
Por favor me livra daqui

[Final] C#m  B  A  B
        C#m  B  A  B
00:00 / 00:00
Outros vídeos desta música
Repetir
Outros vídeos desta música
Composição de La Muerte
Colaboração e revisão:
  • La Muerte
    • ½ Tom
    • A
    • Bb
    • B
    • C
    • Db
    • D
    • Eb
    • E
    • F
    • F#
    • G
    • Ab
  • Adicionar à lista

    0 comentários

    Ver todos os comentários

    Conseguiu tocar?

    0 Tocaram 0 Ainda não

    Grave um vídeo tocando O Mundo Perdido de La Muerte e nos envie!

    Entre para oCifra Club PRO

    Tenha acesso a benefícios exclusivos no App e no Site

    • Chega de anúncios

    • Prioridade de compra em lançamentos

    • Mais recursos no app do Afinador

    • Atendimento Prioritário

    • Descontos nos produtos Cifra Club

    • Ajude a produzir mais conteúdo

    00:00 / 00:00

    Cifra Club Pro

    Aproveite o Cifra Club com benefícios exclusivos e sem anúncios
    Cifra Club Pro
    Aproveite o Cifra Club com benefícios exclusivos e sem anúncios
    OK