Cifra Club

Porquê a Morte Me Deseja Tanto? Pt.2

La Muerte

Cifra: Principal (violão e guitarra)
tom: Bbm (forma dos acordes no tom de Em) Capotraste na 6ª casa
[Intro] C7M  Am  Em  Bm

   C7M   Am    Em    Bm
E|----------0-----0-----2----------|
B|----5-----1-----0-----3----------|
G|----4-----2-----0-----4----------|
D|----5-----2-----2-----4----------|
A|-3-----0--------2--2-------------|
E|-------------0-------------------|

[Primeira Parte]

   C7M   Am    Em    Bm
E|----------0-----0-----2----------|
B|----5-----1-----0-----3----------|
G|----4-----2-----0-----4----------|
D|----5-----2-----2-----4----------|
A|-3-----0--------2--2-------------|
E|-------------0-------------------|

   C7M                Am
Eu não aguento mais rotina
    Em                        Bm
Com todos espalhando o mal de mim a cada dia
C7M               Am              Em
A vida que um dia eu já sonhei em ter
                        Bm              C7M
Talvez tem que acabar e ir embora sem você

                  Am                Em
Preste atenção no que eu estou te falando
                      Bm                 C7M
Cada lembrança morta, minha dor vai aumentando
                  Am                   Em
Eu não precisei fazer essa parte pra vocês
                          Bm
Pois eu acho que da outra vez, já deu pra me
     C7M
entender

                  Am              Em
Entenda que meu maior desejo é morrer
                       Bm                C7M
É que a dor é grande e é difícil de esquecer
               Am                  Em
E vocês não precisam mais se preocupar
                             Bm                 C7M
Eu sei que é só um drama pra eu não querer me matar

( Am    Em    Bm )
( C7M  Am  Em  Bm )
 
[Segunda Parte]

   C7M   Am    Em    Bm
E|----------0-----0-----2----------|
B|----5-----1-----0-----3----------|
G|----4-----2-----0-----4----------|
D|----5-----2-----2-----4----------|
A|-3-----0--------2--2-------------|
E|-------------0-------------------|

   C7M   Am    Em    Bm
E|----------0-----0----------------|
B|----5-----1-----0----------------|
G|----4-----2-----0----------------|
D|----5-----2-----2----------------|
A|-3-----0--------2--2-------------|
E|-------------0-------------------|

C7M               Am                       Em
Não quero que me ajude e nem que olhe para mim
             Bm                           C7M
Cada dia que passa, estou mais próximo do fim
               Am                    Em
Já cansei de viver com sentimentos ruins
               Bm                           C7M
Já cansei de viver sofrendo com o que eu já fiz

( Am    Em    Bm )

[Refrão]

( C7M  Am  Em  Bm )

C7M              Am                   Em
Vai embora agora e não me veja como estou
                  Bm              C7M
Sofrendo a cada dia por falta de amor
                           Am                 Em
Ninguém está do meu lado e queria que fosse assim
                        Bm                  C7M
Minha vida é um farto e quero anteceder meu fim

                    Am           Em
Porquê a Morte me deseja tanto assim?
                    Bm                   C7M
Se me deseja tanto, porquê não tira eu daqui?
                 Am              Em
Pare de me ver sofrer e me leve agora
                    Bm                C7M   Am
Se sabe que o meu maior desejo é ir embora
     Em         Bm  C7M  Am  Em  Bm
Ir embora agora

[Final] C7M  Am  Em  Bm
        C7M  Am  Em  Bm

   C7M      Am     Em      Bm
E|---------------------------------|
B|-----5-------1-------0-----3-----|
G|-----4-------2-------0-----4-----|
D|---5---5\------2---2---2------4--|
A|-3----3---0---0----------2---2---|
E|-----------------0----0----------|

   C7M      Am     Em      Bm
E|---------------------------------|
B|-----5-------1-------0---------3-|
G|-----4-------2-------0-------4---|
D|---5---5\------2---2---2---4-----|
A|-3----3---0---0----------2-------|
E|-----------------0----0----------|
00:00 / 00:00
Outros vídeos desta música
Repetir
Outros vídeos desta música
Composição de La Muerte
Colaboração e revisão:
  • La Muerte
1 exibições
    • ½ Tom
    • Am
    • Bbm
    • Bm
    • Cm
    • C#m
    • Dm
    • Ebm
    • Em
    • Fm
    • F#m
    • Gm
    • G#m
  • Adicionar à lista

    0 comentários

    Ver todos os comentários

    Conseguiu tocar?

    0 Tocaram 0 Ainda não

    Grave um vídeo tocando Porquê a Morte Me Deseja Tanto? Pt.2 e nos envie!

    Entre para oCifra Club PRO

    Tenha acesso a benefícios exclusivos no App e no Site

    • Chega de anúncios

    • Prioridade de compra em lançamentos

    • Mais recursos no app do Afinador

    • Atendimento Prioritário

    • Descontos nos produtos Cifra Club

    • Ajude a produzir mais conteúdo

    00:00 / 00:00

    Cifra Club Pro

    Aproveite o Cifra Club com benefícios exclusivos e sem anúncios
    Cifra Club Pro
    Aproveite o Cifra Club com benefícios exclusivos e sem anúncios
    OK