Cifra Club

Romeu e Julieta, Ele Morreu e Ela Não

La Muerte

Cifra: Principal (violão e guitarra)
tom: G
[Intro]

   Am    C/G   F     E
E|-------------------------|
B|-----1-----1-----1-----0-|
G|-----2-----0-----2-----1-|
D|---2-----2-----3-----2---|
A|-0-----------------------|
E|-------3-----1-----0-----|

   Am    C/G   F     E
E|-------------------------|
B|-----1-----1-----1-----0-|
G|-----2-----0-----2-----1-|
D|---2-----2-----3-----2---|
A|-0-----------------------|
E|-------3-----1-----0-----|

   Am    C/G   F     E
E|-------------------------|
B|-----1-----1-----1-----0-|
G|-----2-----0-----2-----1-|
D|---2-----2-----3-----2---|
A|-0-----------------------|
E|-------3-----1-----0-----|

   Am    C/G   F     E
E|-------------------------|
B|-----1-----1-----1-----0-|
G|-----2-----0-----2-----1-|
D|---2-----2-----3-----2---|
A|-0-----------------------|
E|-------3-----1-----0-----|

[Primeira Parte]

Am   C/G       F       E        Am   C/G   F   E
Procurei pelas trevas, por você
Am  C/G  F        E        Am           C/G      F    E
E o desespero nos olhos da alma, já faz querer sofrer
Am   C/G      F        E     Am      C/G  F   E
Como será que é que eu vou fazer pra te  achar
Am   C/G        F     E             Am    C/G     F   
Se você estiver viva, como é que eu vou fazer pra te 
     E
encontrar

[Segunda Parte]

E|-0--0--0--0--------------|
B|-------------------------|
G|-------------------------|
D|-------------------------|
A|-------------------------|
E|-------------------------|

Am       C/G
Por isso venha para cá
F           E
Ou venha me salvar
Am       C/G
Por isso venha para cá
F                     E
Mais um minuto eu não vou aguentar

[Pré-Refrão]

                   Am     C/G
Você só precisa de um ritual
        F               E
Sei que isso pode lhe cair meio mal
Am                 C/G
Eu já sei que isso não é normal
       F                     E
Mas se você quiser me ver de novo, tem que agir como tal

[Refrão]

Am         C/G              F
Venha me tirar daqui, por favor
                   E
Não aguento todo esse terror (esse terror)
Am               C/G         F    E
Não quero ficar aqui, ó meu Amor

Am               C/G
Venha me tirar daqui, por favor
     C/G                E
Não aguento todo esse terror (por favor)
Am               C/G
Não quero ficar aqui, nesse rancor
    F                E
Julieta traga todo o meu Amor

[Final] Am  C/G  F  E
        Am  C/G  F  E
        Am  C/G  F  E
        Am  C/G  F  E  Am
00:00 / 00:00
Outros vídeos desta música
Repetir
Outros vídeos desta música
Composição de La Muerte
Colaboração e revisão:
  • La Muerte
1 exibições
    • ½ Tom
    • A
    • Bb
    • B
    • C
    • Db
    • D
    • Eb
    • E
    • F
    • F#
    • G
    • Ab
  • Adicionar à lista

    0 comentários

    Ver todos os comentários

    Conseguiu tocar?

    0 Tocaram 0 Ainda não

    Grave um vídeo tocando Romeu e Julieta, Ele Morreu e Ela Não e nos envie!

    Entre para oCifra Club PRO

    Tenha acesso a benefícios exclusivos no App e no Site

    • Chega de anúncios

    • Prioridade de compra em lançamentos

    • Mais recursos no app do Afinador

    • Atendimento Prioritário

    • Descontos nos produtos Cifra Club

    • Ajude a produzir mais conteúdo

    00:00 / 00:00

    Cifra Club Pro

    Aproveite o Cifra Club com benefícios exclusivos e sem anúncios
    Cifra Club Pro
    Aproveite o Cifra Club com benefícios exclusivos e sem anúncios
    OK