Cifra Club

Sereníssima

Legião Urbana

Cifra: Principal
exibições 661.951
Tom: G
Tom: G

Violão 1

Introdução:
G/D  D9  G/D  A/D  D
D C9 G/B C9 (4x)
C9 G/B A4(7) G5 G5/F# Em7(11) D (4x)



                  C    G
Sou um animal sentimental
             C         D                    C    G C
Me apego facilmente ao que desperta o meu desejo
 D               C    G
Tente me obrigar a fazer o que não quero
     C     D                  C  G
E você vai logo ver o que acontece
C                         G
Acho que entendo o que você quis me dizer
     D             A7
Mas existem outras coisas

 D                C      G                  C
Consegui meu equilíbrio cortejando a insanidade,
 D                 C    G               C
Tudo está perdido mas existem possibilidades-
 D                 C   G
Tinhamos a idéia, mas você mudou os planos
 C            D             C       G
Tinhamos um plano, você mudou de idéia

       C                     G           D  A7
Já passou, já passou - quem sabe outro dia-

G     G/F#   Em     A7          D
Antes eu sonhava, agora já não durmo
        G     G/F#  Em    A7            D
Quando foi que competimos pela primeira vez?
G      G/F#       Em           A7         D
O que ninguém percebe é o que todo mundo sabe
       G    G/F# Em       A7            D
Não entendo terrorismo, falávamos de amizade

introdução: D C9 G/B C9 (4x)
           C9 G/B A4(7) G5 G5/F# Em7(11) D (4x)

 D                     C    G
Não estou mais interessado no que sinto
        C       D                  C    G C
Não acredito em nada além do que duvido

 D                      C         G
Você espera respostas que eu não tenho
     C      D             C    G
Não vou brigar por causa disso
    C               G                 D  A7
Até penso duas vezes se você quiser ficar

       G    G/F#  Em              A7         D
Minha laranjeira verde, porque está tão prateada?
        G     G/F# Em        A7           D
Foi da lua desta noite, do sereno da madrugada
     G      G/F#  Em      A7           D
Tenho um sorriso bobo, parecido com soluço
            G     G/F#    Em7
Enquanto o caos segue em frente
      A7              D   ( G D9/F# Em A7 D )2x
Com toda a calma do mundo


Violão 2

Introdução:

 D
------------------2-----2----------------
---3-----3-----3----3-----3---3----------
-----2-----2---2------2-----2------------
-0-----0-----0-0------------0------------
-----------------------------------------
-----------------------------------------

 D
-----------------2-----2-----------------
----3-----3--------3-----3---3-----------
-2----2-----2--------2-----2-------------
-0------0-----0------------0-------------
-----------------------------------------
-----------------------------------------

 D              D5    D5(9)
---2------0-------3--------------------
-----3------3-------3------3-------------
-2-----2--------0-----0-------2----------
-0----------------------------0----------
-----------------------------------------
-----------------------------------------

 C9       G/B     A7(4)   G
-----------------------------------------
------3--------3-------3-------3---------
---0--0-----0--0----0--0----0--0---------
---2--------0-------0-------0------------
-3--------2-------0-----------------0----
--------------------------3------------

 D
----2---2-2-2-2---2------2---------------
----3---3-3-3-3-----3------3-------------
-2--2---2-2-2-2-------2------2-----------
-0--0---0-0-0-0-------0------0-----------
-----------------------------------------
-----------------------------------------

------3------3------0------0-------------
----5------4------3------3---------------
--5------5------2------0-----------------
-----------------------------4--2p0------
-----------------------------------------
-----------------------------------------


Estrofe:

 D                           C9
---2------2------2------2----3--3-3------
-----3------3------3----3----3--3-3------
-2-----2------2------2--2----0--0-0------
-0----------------------0----2--2-2------
-----------------------------3--3-3------
-----------------------------------------

 G                          C9
---3------3-----3-----------3--3-3-------
-----3------3-----3----3----3--3-3-------
-------0------0-----0--0----0--0-0-------
-0---------------------0----2--2-2-------
-2---------------------2----3--3-3-------
-3---------------------------------------

variação antes da parte b:
 G
---3------3-----3-----3------------------
-----3------3-----3-----3----------------
-------0------0-----0-----0--------------
-0---------------------------------------
-2---------------------------------------
-3---------------------------------------

Parte b:

---------------------------------------------------
-----8------8------10/12----12\10----10\-----------
-------9------9------------------------------------
--10-----10-----10-------12-------10---------------
---------------------------------------------------
---------------------------------------------------

---------------------------------------------------
----8-----8-----8-----8----------------------------
------7-----7-----7-----7--------------------------
--9-----9-----9-----9-----9------------------------
---------------------------------------------------
---------------------------------------------------

---------------------------------------------------
----7-----7-----7-----7----------------------------
------7-----7-----7-----7--------------------------
--7-----7-----7-----7-----7------------------------
---------------------------------------------------
---------------------------------------------------

---------------------------------------------------
------10\----8\----7\-----5------------------------
---------------------------------------------------
-9/11------9\----7\-----5--------------------------
---------------------------------------------------
---------------------------------------------------


Refrão Final:

---------------------------------------------------
---8-----8-----7-----8-----------------------------
-----7-----7-----7-----7---------------------------
-9-----9-----9-----9-----9-------------------------
---------------------------------------------------
---------------------------------------------------

---------------------------------------------------
------10------10--------7-----7--------------------
---------9-------9--------7-----7------------------
-9/11------11------11-7-----7-----7----------------
---------------------------------------------------
---------------------------------------------------
Acordes para:
    Composição: Dado Villa-Lobos / Renato RussoColaboração e revisão:
    • Oberdan Salles
    • Rangel Lange
    • Gabriel Chagas

    0 comentários

      mostrar mais comentários

      Conseguiu tocar?

      45tocaram1ainda não

      Grave um vídeo tocando Sereníssima e mande pra gente!

      00:00 / 00:00
      outros vídeos desta música
      repetirqualidadeautomática
      Outro vídeos desta música
        00:00 / 00:00
        automática
        Capítulos
        • Início
        • Tocando a música
        • Acordes da Introdução
        • Tocando Introdução
        • Ensinando Ritmo da Introdução
        • Ensinando Solos da Introdução
        • Acordes da Primeira Estrofe
        • Tocando Primeira Parte
        • Ensinando Ritmo das Estrofes
        • Ensinando Solos das Estrofes
        • Tocando Segunda Parte
        • Ensinando Ritmo da Segunda Parte
        • Ensinando Solos da Segunda Parte
        • Tocando Final
        • Ensinando Solos do Final
        • Encerramento
        OK