Cifra Club

Sereníssima

Legião Urbana

Cifra: Principal (violão e guitarra)
tom: G
[Intro] G/D  D9  G/D  A/D  D
        D  C9  G/B  C9 
        D  C9  G/B  C9 
        D  C9  G/B  C9 
        D  C9  G/B  C9 
        C9  G/B  A4(7)  G5 
        G5/F#  Em7(11)  D 
        C9  G/B  A4(7)  G5 
        G5/F#  Em7(11)  D 
        C9  G/B  A4(7)  G5 
        G5/F#  Em7(11)  D 
        C9  G/B  A4(7)  G5 
        G5/F#  Em7(11)  D 

[Violão 2]

[TAB - Intro]

Parte 1 de 6
   D
E|------------------2-----2----------------|
B|---3-----3-----3----3-----3---3----------|
G|-----2-----2---2------2-----2------------|
D|-0-----0-----0-0------------0------------|
A|-----------------------------------------|
E|-----------------------------------------|

Parte 2 de 6
   D
E|-----------------2-----2-----------------|
B|----3-----3--------3-----3---3-----------|
G|-2----2-----2--------2-----2-------------|
D|-0------0-----0------------0-------------|
A|-----------------------------------------|
E|-----------------------------------------|

Parte 3 de 6
   D             
E|---2------0-------3-----1| ¼---------------|
B|-----3------3-------3------3-------------|
G|-2-----2--------0-----0-------2----------|
D|-0----------------------------0----------|
A|-----------------------------------------|
E|-----------------------------------------|

Parte 4 de 6
   C9       G/B     A7(4)   G
E|-----------------------------------------|
B|------3--------3-------3-------3---------|
G|---0--0-----0--0----0--0----0--0---------|
D|---2--------0-------0-------0------------|
A|-3--------2-------0-----------------0----|
E|--------------------------3------2| ¼------|

Parte 5 de 6
   D
E|----2---2-2-2-2---2------2---------------|
B|----3---3-3-3-3-----3------3-------------|
G|-2--2---2-2-2-2-------2------2-----------|
D|-0--0---0-0-0-0-------0------0-----------|
A|-----------------------------------------|
E|-----------------------------------------|

Parte 6 de 6
E|------3------3------0------0-------------|
B|----5------4------3------3---------------|
G|--5------5------2------0-----------------|
D|-----------------------------4--2p0------|
A|-----------------------------------------|
E|-----------------------------------------|

[Primeira Parte]

[TAB - Primeira Parte]

Parte 1 de 2
   D                           C9
E|---2------2------2------2----3--3-3------|
B|-----3------3------3----3----3--3-3------|
G|-2-----2------2------2--2----0--0-0------|
D|-0----------------------0----2--2-2------|
A|-----------------------------3--3-3------|
E|-----------------------------------------|

Parte 2 de 2
   G                          C9
E|---3------3-----3-----------3--3-3-------|
B|-----3------3-----3----3----3--3-3-------|
G|-------0------0-----0--0----0--0-0-------|
D|-0---------------------0----2--2-2-------|
A|-2---------------------2----3--3-3-------|
E|-3---------------------------------------|

[Variação]

   G
E|---3------3-----3-----3------------------|
B|-----3------3-----3-----3----------------|
G|-------0------0-----0-----0--------------|
D|-0---------------------------------------|
A|-2---------------------------------------|
E|-3---------------------------------------|

                  C    G
Sou um animal sentimental
             C         D                    C    G  C
Me apego facilmente ao que desperta o meu desejo
 D               C    G
Tente me obrigar a fazer o que não quero
     C      D                  C  G
E você vai logo ver o que acontece
C                         G
Acho que entendo o que você quis me dizer
      D             A7
Mas existem outras coisas

 D                C      G                  C
Consegui meu equilíbrio cortejando a insanidade
 D                 C    G               C
Tudo está perdido mas existem possibilidades
 D                 C   G
Tínhamos a ideia, mas você mudou os planos
 C            D            C       G
Tínhamos um plano, você mudou de ideia

       C                   G           D  A7
Já passou, já passou quem sabe outro dia

[Refrão]

G     D9/F#  Em     A7          D
Antes eu sonhava, agora já não durmo
        G       D9/F#  Em      A7          D
Quando foi que compe__timos pela primeira vez?
G      D9/F#      Em           A7         D
O que ninguém percebe é o que todo mundo sabe
       G     D9/F#  Em       A7            D
Não entendo terro__rismo, falávamos de amizade

( D  C9  G/B  C9 )
( D  C9  G/B  C9 )
( D  C9  G/B  C9 )
( D  C9  G/B  C9 )
( C9  G/B  A4(7)  G5 )
( G5/F#  Em7(11)  D )
( C9  G/B  A4(7)  G5 )
( G5/F#  Em7(11)  D )
( C9  G/B  A4(7)  G5 )
( G5/F#  Em7(11)  D )
( C9  G/B  A4(7)  G5 )
( G5/F#  Em7(11)  D )

[Segunda Parte]

[TAb - Segunda Parte]

Parte 1 de 4
E|---------------------------------------------------|
B|-----8------8------10/12----12\10----10\-----------|
G|-------9------9------------------------------------|
D|--10-----10-----10-------12-------10---------------|
A|---------------------------------------------------|
E|---------------------------------------------------|

Parte 2 de 4
E|---------------------------------------------------|
B|----8-----8-----8-----8----------------------------|
G|------7-----7-----7-----7--------------------------|
D|--9-----9-----9-----9-----9------------------------|
A|---------------------------------------------------|
E|---------------------------------------------------|

Parte 3 de 4
E|---------------------------------------------------|
B|----7-----7-----7-----7----------------------------|
G|------7-----7-----7-----7--------------------------|
D|--7-----7-----7-----7-----7------------------------|
A|---------------------------------------------------|
E|---------------------------------------------------|

Parte 4 de 4
E|---------------------------------------------------|
B|------10\----8\----7\-----5------------------------|
G|---------------------------------------------------|
D|-9/11------9\----7\-----5--------------------------|
A|---------------------------------------------------|
E|---------------------------------------------------|

 D                     C    G
Não estou mais interessado no que sinto
         C       D                  C   G  C
Não acredito em nada além do que duvido
 D                      C         G
Você espera respostas que eu não tenho mas
     C      D             C    G
Não vou brigar por causa disso
     C                G                D  A7
Até penso duas vezes se você quiser ficar

[Refrão Final]

[TAB - Refrão Final]

Parte 1 de 2
E|---------------------------------------------------|
B|---8-----8-----7-----8-----------------------------|
G|-----7-----7-----7-----7---------------------------|
D|-9-----9-----9-----9-----9-------------------------|
A|---------------------------------------------------|
E|---------------------------------------------------|

Parte 2 de 2
E|---------------------------------------------------|
B|------10------10--------7-----7--------------------|
G|---------9-------9--------7-----7------------------|
D|-9/11------11------11-7-----7-----7----------------|
A|---------------------------------------------------|
E|---------------------------------------------------|

       G    D9/F#  Em              A7         D
Minha laranjeira  verde, porque está tão prateada?
        G     D9/F#  Em          A7           D
Foi da lua desta    noite, do sereno da madrugada
      G      D9/F#  Em        A7         D
Tenho um sorriso   bobo, parecido com soluço
            G    D9/F#     Em7
Enquanto o caos segue em frente
     A7              D   
Com toda a calma do mundo

( G  D9/F#  Em  A7  D )
( G  D9/F#  Em  A7  D )

00:00 / 00:00
Outros vídeos desta música
Repetir
Outros vídeos desta música
Composição de Dado Villa-Lobos / Renato Russo
Colaboração e revisão:
777.621 exibições
  • Simplificar cifra
    • ½ Tom
    • A
    • Bb
    • B
    • C
    • Db
    • D
    • Eb
    • E
    • F
    • F#
    • G
    • Ab
  • Adicionar à lista

    0 comentários

    Ver todos os comentários

    Entre para oCifra Club PRO

    Tenha acesso a benefícios exclusivos no App e no Site

    • Chega de anúncios

    • Prioridade de compra em lançamentos

    • Mais recursos no app do Afinador

    • Atendimento Prioritário

    • Descontos nos produtos Cifra Club

    • Ajude a produzir mais conteúdo

    00:00 / 00:00
    Capítulos
    • Início
    • Tocando a música
    • Acordes da Introdução
    • Tocando Introdução
    • Ensinando Ritmo da Introdução
    • Ensinando Solos da Introdução
    • Acordes da Primeira Estrofe
    • Tocando Primeira Parte
    • Ensinando Ritmo das Estrofes
    • Ensinando Solos das Estrofes
    • Tocando Segunda Parte
    • Ensinando Ritmo da Segunda Parte
    • Ensinando Solos da Segunda Parte
    • Tocando Final
    • Ensinando Solos do Final
    • Encerramento

    Cifra Club Pro

    Aproveite o Cifra Club com benefícios exclusivos e sem anúncios
    Cifra Club Pro
    Aproveite o Cifra Club com benefícios exclusivos e sem anúncios
    OK