Cifra Club

La tinta de tus lágrimas

Manuel Garcia

Cifra: Principal (violão e guitarra)
tom: E
B||------------------------|
G||------------------------|
D||------------------------|
A||------------------------|
E||------------------------|

e||-11-11-13-14-13-11--------------------------------------------|
B||-------------------14-14-12-11--------------------------------|
G||-------------------------------13-13-11h13-13---11b-11h12-14--|
D||--------------------------------------------------------------|
A||--------------------------------------------------------------|
E||--------------------------------------------------------------|


e||-11-13-13/14-|
B||-------------|
G||-------------|
D||-------------|
A||-------------|
E||-------------|


Segundo Solo (se repite el primero MÁS lo que aparece acá abajo)

e||-14-13-11-11b-13-11----------------------11----11b-11-13-14/18-|
B||--------------------14-14---11-12-12h14-----14-----------------|
G||---------------------------------------------------------------|
D||---------------------------------------------------------------|
A||---------------------------------------------------------------|
E||---------------------------------------------------------------|
Composição de Francis Cabrel
5 exibições
    • ½ Tom
    • A
    • Bb
    • B
    • C
    • Db
    • D
    • Eb
    • E
    • F
    • F#
    • G
    • Ab
  • Adicionar à lista

    0 comentários

    Ver todos os comentários

    Conseguiu tocar?

    0 Tocaram 0 Ainda não

    Grave um vídeo tocando La tinta de tus lágrimas e nos envie!

    00:00 / 00:00
    Outros vídeos desta música
    Repetir Qualidade Automático
    Outros vídeos desta música
    00:00 / 00:00
    Automático

    Cifra Club Pro

    Aproveite o Cifra Club com benefícios exclusivos e sem anúncios
    Cifra Club Pro
    Aproveite o Cifra Club com benefícios exclusivos e sem anúncios
    OK