Cifra Club

Infiel

Marília Mendonça

Tab de baixo: Principal
[Introdução]

G|----------------------------------------------|
D|----------------------------------------------|
A|----7-7----7----7-----7----7--5---5h7---------|
E|-5------5----5----7-7----7------5-----5-------|
B|----------------------------------------------|

[Primeira parte]

Isso não é uma disputa...

Parte 1 de 4
G|----------------------------------------------|
D|----------------------------------------------|
A|-7---7--3---3--5---5--7-----------------------|
E|---7------3------5------7\-0------------------|
B|----------------------------------------------|
                             .
G|----------------------------------------------|
D|----------------------------------------------|
A|---7--3---3--5---5--7---------x-7\------------|
E|-7------3------5------7-7--0------------------|
B|----------------------------------------------|

Parte 2 de 4
G|----------------------------------------------|
D|------------------x-8h9-----------------------|
A|-3---3--5---5--7------------------7--3---3----|
E|---3------5-------------7--0--x-7------3------|
B|----------------------------------------------|

G|----------------------------------------------|
D|----------------------------------------------|
A|-5---5----------------------------------------|
E|---5------------------------------------------|
B|----------------------------------------------|

Parte 3 de 4
G|----------------------------------------------|
D|----------------------------------------------|
A|----7-7----7--------7-7-----4h5-4h5---4h5-----|
E|-5------5----5h7--0-----0-3---------3-----3h5-|
B|----------------------------------------------|
                                         .
G|----------------------------------------------|
D|----7------------------------5----------------|
A|-5-------5-----7----------5-----7-------------|
E|-------5-----5---0-5--5h7---------7-7--0------|
B|----------------------------------------------|

Parte 4 de 4
G|----------------------------------------------|
D|-------------------5---5h7--------------------|
A|---------4h5-4h5-----5-----5-----5---5h7------|
E|-12\--3----------------------5-5---5----------|
B|----------------------------------------------|

G|----------------------------------------------|
D|----------------------------------------------|
A|----------7------3-----3--3-3-----------------|
E|-5-----5----5h7----3-3------------------------|
B|---5-5----------------------------------------|


[Refrão]      

Iêêê, infiel,eu quero ver você morar num motel...

Parte 1 de 2
G|----------------------------------------------|
D|----------------------------------------------|
A|----7--------7----7-----7------5---5-----5----|
E|-5--------5----5----7-7----5h7---7---5-5------|
B|------5h7-------------------------------------|

G|----------------------------------------------|
D|--------------7-------------------------------|
A|---5h7---7-7----5h7--------5h7----------5-5h7-|
E|-5-----5------------7----5-------5--5h7-------|
B|----------------------5--------5--------------|

Parte 2 de 2
G|----------------------------------------------|
D|--------------------------------------7P5-5/--|
A|-----------7-----5-----5---5h7----5h7---------|
E|-7-7--0--7---7-5---5-5---5-----5--------------|
B|----------------------------------------------|

G|----------------------------------------------|
D|----------------------------------------------|
A|-x-14\----------------------------------------|
E|----------------------------------------------|
B|----------------------------------------------|


[Introdução 2]

G|----------------------------------------------|
D|-----------------------------------------7\---|
A|----7-------7-----7----------7--5---5h7-------|
E|-5-------5----5h7---7-7-0--7------5-----------|
B|-------5--------------------------------------|


[Segunda parte]

O seu prêmio que não vale nada, estou...
                       
G|----------------------------------------------|
D|----------------------------------------------|
A|---6h7-6h7---6h7-----------5------------------|
E|-5---------5-----5h7--0--7---7--0-------------|
B|----------------------------------------------|

G|----------------------------------------------|
D|-----------5----------------------------------|
A|---4h5-4h5---5-----5-----5---5h7----7-7---7---|
E|-3-------------3h5---5-5---5-----5------5-----|
B|----------------------------------------------|

G|----------------------------------------------|
D|----------------------------------------------|
A|-----3-----3--3-3-----------------------------|
E|-5h7---3-3------------------------------------|
B|----------------------------------------------|


[Refrão 2]     

Iêêê, infiel,eu quero ver você morar num motel...

Parte 1 de 3
G|----------------------------------------------|
D|--------5------------5------------------------|
A|----5h7---7------5h7----7-----------7---------|
E|-5----------5--7----------7-7--0--7---7-------|
B|----------------------------------------------|

G|----------------------------9-----------------|
D|----------------------9-8-7---9h11-9\7--------|
A|-5-----5---5h7----5h7-------------------------|
E|---5-5---5-----5------------------------------|
B|----------------------------------------------|

Parte 2 de 3
G|-----------------------9----------------------|
D|-------9---7----7h9---------------------------|
A|---5h7---7----5-----7--------------7-----5----|
E|-5-----------------------7-7--0--7---7-5------|
B|----------------------------------------------|

G|----------------------------------------------|
D|-5h7-----------------9-8-7-----5-7------------|
A|-------5---5h7---5h7-------5h7----------------|
E|-----5---5-----5------------------------------|
B|----------------------------------------------|

Parte 3 de 3
G|----------------------------------9-----------|
D|-------5----------------------7h9-------------|
A|---5h7---7--------5---7-----7-------7-6-5---7-|
E|-5---------5--5h7---7---7-7---------------5---|
B|----------------------------------------------|
                                 
G|----------------------------------------------|
D|-----------------7-------4--------------------|
A|----5----5h7-------4-5-7---7-4----------------|
E|-5----5------5-----------------5--5-----------|
B|----------------------------------------------|
exibições 11.144
Composição: Marília Mendonça Colaboração e revisão:
  • Reginaldo Costa

0 comentários

mostrar mais comentários

Conseguiu tocar?

0 tocaram 3 ainda não

Grave um vídeo tocando Infiel e mande pra gente!

00:00 / 00:00
outros vídeos desta música
repetir qualidade Automático
Outros vídeos desta música
00:00 / 00:00
Automático
Capítulos
  • Tocando a música
  • Apresentação / Equipamentos
  • Treinando Introdução
  • Treinando Primeira Parte - Parte 1 de 4
  • Treinando Primeira Parte - Parte 2 de 4
  • Treinando Primeira Parte - Parte 3 de 4
  • Treinando Primeira Parte - Parte 4 de 4
  • Dicas Refrão - Introdução 2
  • Treinando Refrão - Parte 1 de 2
  • Treinando Refrão - Parte 2 de 2
  • Treinando Introdução 2
  • Dicas Segunda Parte e Refrão
  • Treinando Segunda Parte
  • Treinando Segundo Refrão - Parte 1 de 3
  • Treinando Segundo Refrão - Parte 2 de 3
  • Treinando Segundo Refrão - Parte 3 de 3
  • Encerramento
OK